PrimaNota.ru - самый крупный в мире бесплатный архив песенных текстов, аккордов, табулатур и нот


Abarax - Howards End - таба, видео

Регистрация Запомнить меня
Войти через:  Facebook Google Twitter Vk Yandex Mail.ru

Abarax - Howards End - таба, видео

Печатать
Просмотров: 193
Уроки эстрадного вокала в Санкт-Петербурге
                                       Artist - Abarax
                                      *****************
                                     Song - Howard's End
                                    *********************
                                      Album - Blue Room
                                     *******************

                                       
SOLO 1
*******
00:24
    b
[--12---12-10--|-------------------]
[--------------|---s---------p-----]
[--------------|--9\10---9-10-9-7--]x2
[--------------|-------------------]
[--------------|-------------------]
[--------------|-------------------]


VERSE 1
********
Howard's End can never mend
a heart that's broken through - Howard's End
Howard's End can never send
an arrow straight to you - Howard's End


VERSE 2
********
Howard's End could make amends
for every love that never ends - Howard's End
Howard's End can't be sustained
it's violence, but it's true - Howard's End


DISTORTED GUITAR
****************
SECTION 1
CHORUS
*******
01:58
[-----------|-------------------------|-------------------------|
[-----------|-------------------------|-------------------------|
[-----------|-------------------------|-------------------------|
[-----------|----5-7-8-7-5---5--------|----------5-7-5----------|
[--5--7--8--|--8-----------8---8-7----|----5-7-8-------8-7---5--|
[-----------|----------------------8--|--8-----------------8----|


[-----------------------]
[-----------------------]
[-----------------------]
[-----------------------]
[--5-7-8-7-5------------]
[------------8-7-5-3-5--]

CHORUS
*******
Arrows peirce a skin so soft
I've stroked enough and loved it too
Target right through my side
an arrow, an arrow straight to you


Clean Guitar
[--------s----]
[--4-4-4-\-6--]
[--5-5-5-\-7--]X8
[--5-5-5-\-7--]
[--3-3-3-\-5--]
[-------------]

SOLO 2 
*******
02:45                  h  h            s   s                   s
[-----s-17--15-13-15-12-13-15-13--|--12\-10\-12-13--|--12-10-12\-----]
[--10-\---------------------------|-----------------|-------------10-]
[---------------------------------|-----------------|----------------]
[---------------------------------|-----------------|----------------]
[---------------------------------|-----------------|----------------]
[---------------------------------|-----------------|----------------]

VERSE 3
********
Howard's End the time has come
no feeling can return to you - Howard's End
Howard's End you've lost a friend
I hope you choose to do - Howard's End


VERSE 4
********
Howard's End can never mend
a heart that's broken through - Howard's End
Howard's End could never send
an arrow straight to you - Howard's End


REPEAT CHORUS
**************
Arrows peirce a skin so soft
I've stroked enough and loved it too
Target right through my side
an arrow, an arrow straight to you


SOLO 2
******* 
04:34             h  h            s   s                   s
[--17--15-13-15-12-13-15-13--|--12\-10\-12-13--|--12-10-12\-----]
[----------------------------|-----------------|-------------10-]
[----------------------------|-----------------|----------------]X2
[----------------------------|-----------------|----------------]
[----------------------------|-----------------|----------------]
[----------------------------|-----------------|----------------]


VERSE 5
********
Howard's End can never mend
a heart that's broken through - Howard's End
Howard's End can never send
an arrow straight to you - Howard's End

VERSE 6
********
Ohh Howard's End could make amends
for every love that never ends - Howard's End
Howard's End can't be sustained
it's violence, but it's true - Howard's End


REPEAT CHORUS X2
*****************
Arrows peirce a skin so soft
I've stroked enough and loved it too
Target right through my side
an arrow, an arrow straight to you

PLAY SECTION 1 THROUGH THE GUITAR SOLO.
****************************************
SOLO 3
*******
07:07
[--------------|--------------|----------------|---------------------------]
[----s---------|--------------|----------------|----s----------------------]
[--12\14-14-14-|-14-12-10-9-9-|--9-10-12-10-9--|--10\12--10-9-10-9---------]
[--------------|--------------|----------------|-------------------12-10-12]
[--------------|--------------|----------------|---------------------------]
[--------------|--------------|----------------|---------------------------]


[-----------------------|-----------------|--------------|-----------------]
[------------------s----|----s------------|--------------|-----------------]
[-9-10-12--10-12-12\14--|--12\14-14-14-14-|-14-12-10-9-9-|-9-10-12-10-9-10-]
[-----------------------|-----------------|--------------|-----------------]
[-----------------------|-----------------|--------------|-----------------]
[-----------------------|-----------------|--------------|-----------------]


[------------------------------------------|--s--------------]
[------------------------------------------|--\-10--10-13-10-]
[--9---------------------------------b-----|-----------------]
[----12-10-12-10-------------10-12-10----s-|-----------------]
[-----------------12-10-12-------------12\-|-----------------]
[------------------------------------------|-----------------]


[------------------|---------------------------------------]
[-13-10------------|-----------s---------------------------]
[-------12-10-10-9-|-9-10-12-12\14--12-10-9-10-9-----------]
[------------------|-----------------------------12-10-----]
[------------------|-----------------------------------12--]
[------------------|---------------------------------------]

                                    07:52
[----------------------------------|-----------10-------------------------]
[--------------s-------------------|-13--10-13----13--10----10------------]
[-------9-10-12\14-14-14-14-14-14--|---------------------12----12-10-9-9--]
[-10-12----------------------------|--------------------------------------]
[----------------------------------|--------------------------------------]
[----------------------------------|--------------------------------------]


[--------------------------------------------|-----------------------------]
[------------------s-------------------------|--------------s--------------]
[-9-10-12-10-12--12\14-12-10-9-10-9----------|-9-10-12-10-12\14--14-14-14--]
[-----------------------------------12-10-12-|-----------------------------]
[--------------------------------------------|-----------------------------]
[--------------------------------------------|-----------------------------]

08:06                                         s
[--13-12-13---13---12---13-12-13----13-----13-\15-15--13-12--]
[--------------------------------15----15--------------------]
[------------------------------------------------------------]
[------------------------------------------------------------]
[------------------------------------------------------------]
[------------------------------------------------------------]

08:21                                        s         h  p  s
[-----12-13---13---12---13-12-13----13----13-\15-15--13-15-13\12--]
[--15----------------------------15----15-------------------------]
[-----------------------------------------------------------------]
[-----------------------------------------------------------------]
[-----------------------------------------------------------------]
[-----------------------------------------------------------------]

08:36
[--------------------------------b-r----------|----------------------------]
[-----------s-----s-------15-17-17--15----15--|----------h--p-s------------]
[-7-9-10--10\14-14\17-17---------------17-----|---9-10-9--10-9\7--7-9-9-9--]
[---------------------------------------------|----------------------------]
[---------------------------------------------|----------------------------]
[---------------------------------------------|----------------------------]

08:50
[---------------------------------------------|--------------]
[---------------10-11-10-------h----h---------|---h--p-s-----]
[--7-9-10--9-10-----------12-10-12-9-10-7-9-9-|--9-10-9\7-9--]
[---------------------------------------------|--------------]
[---------------------------------------------|--------------]
[---------------------------------------------|--------------]

08:57
[------------------------------------------------------------]
[---h--p-p---------------------------------------------------]
[--9-10-9-7----7---------------------------------------------]
[-----------10---10-----------------------------------3---3--]
[-------------------12-10-12--10----------s----s--3-5---5----]
[--------------------------------12-10-12-\-5-3\5------------]

09:05
[-------------------------------------brp-----brp-----b-r----]
[------------s---s-------------15-17-17--15--17--15--17--15--]
[--7-9-10--10\14-\17--17-17-17-------------------------------]
[------------------------------------------------------------]
[------------------------------------------------------------]
[------------------------------------------------------------]

09:16
[----s------h--p--p----|-------------------b---b-----------]
[---8\20--18-20-18-17--|--15-17-18--18-20-20--20-20-18-17--]
[----------------------|-----------------------------------]
[----------------------|-----------------------------------]
[----------------------|-----------------------------------]
[----------------------|-----------------------------------]


[----h--p--p----------|----h--p--p-------|------------|----------h--p------]
[--17-18-17-15-17-17--|--17-18-17-15-17--|--18-17-15--|-18-20--18-20-18-17-]
[---------------------|------------------|------------|--------------------]
[---------------------|------------------|--repeat 5--|--------------------]
[---------------------|------------------|----times---|--------------------]
[---------------------|------------------|------------|--------------------]

09:35
    b  b  b               b  b
[--20-20-20-20--17-20-17-20-20-20--|------------b-r----]
[----------------------------------|--17-20-17-20--17--]
[----------------------------------|-------------------]
[----------------------------------|-------------------]
[----------------------------------|-------------------]
[----------------------------------|-------------------]

09:45
[----h--p--p------------------------------------------------]
[--17-18-17-15----14-------------------------------------s--]
[--------------17----17-14----14----------------------14-\--]
[--------------------------17----17-15-14----14-15-17-------]
[-----------------------------------------17----------------]
[-----------------------------------------------------------]

09:49
[--------------------------------b-------h--p-------|---s-----s----b--b--]
[-----s------s-------s------15-17--17--17-18-17-15--|--8\20--8\20-20-20--]
[--7-9\10-10-\-14-14-\17-17-------------------------|--------------------]
[---------------------------------------------------|--------------------]
[---------------------------------------------------|--------------------]
[---------------------------------------------------|--------------------]

                                  b   b                b   b
[---b-20--b-20--b-r--|-----17-20-20--20-20------17-20-20--20-20--]
[--20----20----20----|--20-------------------20------------------]
[--------------------|-------------------------------------------]
[--------------------|-------------------------------------------]
[--------------------|-------------------------------------------]
[--------------------|-------------------------------------------]

10:11
[--17----17------b-------h--p-------------------------]
[-----20----20--20--18-17-18-17-15---------------s----]
[----------------------------------18-17-14-14-12\14--]
[-----------------------------------------------------]
[-----------------------------------------------------]
[-----------------------------------------------------]


[-----------h-p-------------------|------5--------------]
[----------5-6-5---5-6-8-6-5-6-6--|--6-8---8-6-5-6-5-5--]
[---s--5-7-------7----------------|---------------------]
[--5\7----------------------------|---------------------]
[---------------------------------|---------------------]
[---------------------------------|---------------------]


[---h-p--------h-p--------h-p-------|-------------]
[--5-6-5---5--5-6-5---5--5-6-5------|-------------]
[--------7----------7----------7----|---s--5-5-5--]
[--------------------------------7--|--5\7--------]
[-----------------------------------|-------------]
[-----------------------------------|-------------]


Excellent Song and a nice long solo to play, Have fun Playing this tune.
Добавлено: 18.10.2013
Другие материалы по этой песне:
  • Аккорды и текст

Страница создана 18.10.2013
http://primanota.ru/abarax/howards-end-chords.htm
Привет, Гость.
Предлагаем пройти революционный курс по гитаре.
Подарок от PrimaNota.Ru, забирай!