PrimaNota.ru - самый крупный в мире бесплатный архив песенных текстов, аккордов, табулатур и нот


Abandoning Sunday - Couldnt Hurt To Try - таба, видео

Регистрация Запомнить меня
Войти через:  Facebook Google Twitter Vk Yandex Mail.ru

Abandoning Sunday - Couldnt Hurt To Try - таба, видео

Печатать
Просмотров: 59
-------------------------------------------------------------------------------
                             Couldn't Hurt To Try - Abandoning Sunday
-------------------------------------------------------------------------------
Tabbed by: Aidan Chapel
E-mail: cen2ored380@gmail.com

Tuning: Drop D

e|---------------------------------------------------------------------------|
B|---------------------------------------------------------------------------|
G|---------------------------------------------------------------------------| 
D|-4-4-4-4-4-4-4-4-----------------------------------------------------------|
A|2-2-2-2-2-2-2-2--2-2-2-2-2-2-2-2--6-6-6-6-6-6-6-6--2-2-2-2-2-2-2-2---------|
D|----------------2-2-2-2-2-2-2-2--6-6-6-6-6-6-6-6--2-2-2-2-2-2-2-2----------| x3: Verse 1, 2, and 3

e|---------------------------------------------------------------------------|
B|---------------------------------------------------------------------------|
G|---------------------------------------------------------------------------|
D|-----------------------------------4-4-4-4-4-4-4-4-------------------------|
A|-6-6-6-6-6-6-6-6--2-2-2-2-2-2-2-2-2-2-2-2-2-2-2-2--6-6-6-6-2-2-2-2---------|
D|6-6-6-6-6-6-6-6--2-2-2-2-2-2-2-2------------------6-6-6-6-2-2-2-2----------| x2: 1st and 2nd Chorus

e|---------------------------------------------------------------------------|
B|---------------------------------------------------------------------------|
G|---------------------------------------------------------------------------|
D|--------------------------------4-4-4-4-4-4-4-4----------------------------|
A|6-6-6-6-6-6-6-6-2-2-2-2-2-2-2-2-2-2-2-2-2-2-2-26-6-6-6-2-2-2-2-2-----------|Last part of song
D|6-6-6-6-6-6-6-6-2-2-2-2-2-2-2-2----------------6-6-6-6-2-2-2-2-2-----------|


************************************

| /   slide up
| \   slide down
| h   hammer-on
| p   pull-off
| ~   vibrato
| +   harmonic
| x   Mute note
| b   Bend
| pb  Pre-bend
| br  Bend release
| pbr Pre-bend release
| brb Bend release bend

************************************
Добавлено: 22.06.2015
Вам также может быть интересно:
Другие материалы по этой песне:
  • Аккорды и текст

Страница создана 22.06.2015
http://primanota.ru/abandoning-sunday/couldnt-hurt-to-try-chords.htm
Привет, Гость.
Предлагаем пройти революционный курс по гитаре.
Подарок от PrimaNota.Ru, забирай!