PrimaNota.ru - самый крупный в мире бесплатный архив песенных текстов, аккордов, табулатур и нот


Abandoned By Bears - We Can Break Loose - таба, видео

Регистрация Запомнить меня
Войти через:  Facebook Google Twitter Vk Yandex Mail.ru

Abandoned By Bears - We Can Break Loose - таба, видео

Печатать
Просмотров: 122
Abandoned By Bears - We can break loose!

INTRO x2
-------------------------------------------------------|
-------------------------------------------------------|
-------------------------------------------------------|
-----7-7---7-7-7-7-------------------------------------|
0000-5-5-0-5-5-5-5--0000-5-5-0-5-5-5-5-----------------|
0000-----0----------0000-5-5-0-5-5-5-5-----------------|

VERSE 1 - GUITAR 1 x2
-------------------------------------------------------|
-------------------------------------------------------|
-------------------------------------------------------|
--4---4--------7---7-----------------------------------|
---5---5--4/5---7---7--7/9-----------------------------|
00--00--00---00--00--00--------------------------------|

-------------------------------------------------------|
-------------------------------------------------------|
-------------------------------------------------------|
--4---4------------------------------------------------|
---5---5--4/5--7---7---9---9---------------------------|
00--00--00---00--00--00--00----------------------------|

VERSE 1 - GUITAR 2
-------------------------------------------------------|
-------------------------------------------------------|
-------------------------------------------------------|
-------------------------------------------------------|
000---000--0-0-00-0-000---000---000--0-0-00-0-000------|
000---000--0-0-00-0-000---000---000--0-0-00-0-000------|

-------------------------------------------------------|
-------------------------------------------------------|
-------------------------------------------------------|
-------------------------------------------------------|
000--0--000--0--0-00000000000--0--000---7---7---9---9--|
000--0--000--0--0-00000000000--0--000-00--00--00--00---|

PRE-CHORUS x1
-------------------------------------------------------|
-------------------------------------------------------|
-------------------------------------------------------|
-------------------------------------------------------|
99999999-77777777--------------------------------------|
99999999-77777777--------------------------------------|

VERSE 1 x1
PRE-CHROUS x1

CHORUS x2
-------------------------------------------------------|
-------------------------------------------------------|
-------------------------------------------------------|
--------------7-7--------------------------------------|
0000000000000-5-5-99999999-44444444--------------------|
0000000000000-----99999999-44444444--------------------|

VERSE 2 x1
-------------------------------------------------------|
-------------------------------------------------------|
-------------------------------------------------------|
-------------------------------------------------------|
-------------5-------7-5-4---------------2-------2-4-5-|
000-000--0-0---0-000--------000-000--0-0---0-000-------|

(Don't forget to mute the guitar on the first bar!)
-------------------------------------------------------|
-------------------------------------------------------|
-------------------------------------------------------|
-------------------------------------------------------|
-------------5-------7-5-4--0-0-0-0------2-------2-4-5-|
----000--0-0---0-000--------0-0-0-0--0-0---0-000-------|

PRE-BREAKDOWN - GUITAR 1 x1 (you will understand the pattern)
-------------------------------------------------------|
-------------------------------------------------------|
-------------------------------------------------------|
-------------------------------------------------------|
0--------------------------0---------------------------|
0--------------------------0---------------------------|

PRE-BREAKDOWN - GUITAR 2 x1 (you will understand the pattern)
-------------------------------------------------------|
-------------------------------------------------------|
-------------------------------------------------------|
-------------------------------------------------------|
0--------------------------6-6-6-6-6-6-6-6-6-6-6-6-6-6-|
0--------------------------9-9-9-9-9-9-9-9-9-9-9-9-9-9-|

BREAKDOWN x4
------------------------------------------------------------|
------------------------------------------------------------|
------------------------------------------------------------|
------------------------------------------------------------|
00---00-00-00---00-00-00-00---0000-00-00-00---00-00-0--0--0-|
00---00-00-00---00-00-00-00---0000-00-00-00---00-00-1--1--1-|

VERSE 1 x1
PRE-CHROUS x1
CHORUS x2

OUTRO x2
------------------------------------------------------------|
------------------------------------------------------------|
------------------------------------------------------------|
------------------------------------------------------------|
000-000-00-0-0-000-000-00-0-0-999-999-99-9-9-555-555-55-5-5-|
000-000-00-0-0-000-000-00-0-0-999-999-99-9-9-555-555-55-5-5-|
Добавлено: 18.10.2013
Другие материалы по этой песне:
  • Аккорды и текст

Страница создана 18.10.2013
http://primanota.ru/abandoned-by-bears/we-can-break-loose-chords.htm
Привет, Гость.
Предлагаем пройти революционный курс по гитаре.
Подарок от PrimaNota.Ru, забирай!