PrimaNota.ru - самый крупный в мире бесплатный архив песенных текстов, аккордов, табулатур и нот


Abandoned By Bears - Peter Youre Not Allowed In The City - таба, видео

Регистрация Запомнить меня
Войти через:  Facebook Google Twitter Vk Yandex Mail.ru

Abandoned By Bears - Peter Youre Not Allowed In The City - таба, видео

Печатать
Просмотров: 190
intro
---------------------------------------------------------------|
----------------------------------------------------3----------|
---------------------------------------------------0-0-0-------|
------------------4-------------------------------4---4--------|
-------------------5-----5---------------------0h5-------------|
0--00-11/12-00-00---000-5-5--0--00-11/12-00-00-----------------|

---------------------------------------------------------------|
---------------------------------------------------------------|
---------------------------------------------------------------|
------------------4--------------------------------------------|
-------------------5-----5----------------------------------0--|
0--00-11/12-00-00---000-5-5--0--00-11/12-00-00-000-0-0--2/5-0--|

verse
---------------------------------------------------------------|
---------------------------------------------------------------|
---------------------------------------------------------------|
-----------4----7--5--4--5-------------------------------------|
--------4/5-5-55-55-55-55--------------10--7--9--10------------|
0-00-4/5--------------------0-00-4/5-55--55-55-55--------------|

---------------------------------------------------------------|
---------------------------------------------------------------|
---------------------------------------------------------------|
-----------4----7--5--4--5-------------------------------------|
--------4/5-5-55-55-55-55--------------10--7--9--10------------|
0-00-4/5--------------------0-00-4/5-55--55-55-55--------------|

---------------------------------------------------------------|
---------------------------------------------------------------|
---------------------------------------------------------------|
---------------------------------------------------------------|
--------------------------------------------------10--7--9--10-|
0000----0000-0000----000000000000----0000-0000---5--55-55-55---|
                 
---------------------------------------------------------------|
------------------------------------------------------3--------|
-----------------------------------------------------0-0-0-----|
----------------------------------------------------4---4------|
-------------------------------------------------0h5-----------|
0000----0000-0000----000000000000----0000-0000-----------------|

chorus
---------------------------------------------------------------|
---------------------------------------------------------------|
--------------9/11-----------9/11-9-7--------------------------|
--------------7/9------------7/9--7-5--------------------------|
55555555-0000-------55555555-----------------------------------|
55555555-0000-------55555555-----------------------------------|

---------------------------------------------------------------|
---------------------------------------------------------------|
--------------9/11-----------9/11-9-7--------------------------|
--------------7/9------------7/9--7-5--------------------------|
55555555-0000-------55555555----------0------------------------|
55555555-0000-------55555555----------0------------------------|

verse
---------------------------------------------------------------|
---------------------------------------------------------------|
---------------------------------------------------------------|
---------------------------------------------------------------|
00-00-00-000000-00-0000000000-00-00-000000-00-000-0-0000-------|
00-00-00-000000-00-0000000000-00-00-000000-00-000-0-0000-------|

---------------------------------------------------------------|
---------------------------------------------------------------|
---------------------------------------------------------------|
---------------------------------------------------------------|
00-00-00-000000-00-0000000000-00-00-000000-00-000-0-0000-------|
00-00-00-000000-00-0000000000-00-00-000000-00-000-0-0000-------|

---------------------------------------------------------------|
---------------------------------------------3-----------------|
--------------------------------------------0-0-0--------------|
-------------------------------------------4---4---------------|
----------------------------------------0h5--------------------|
0---000-00-00---000-0-000-0---000-00-00------------------------|

---------------------------------------------------------------|
------------------------------------------------3--------------|
-----------------------------------------------0-0-0-----------|
----------------------------------------------4---4------------|
--------------------0--0--0----------------0h5-------0---------|
0---000-00-00---000-1--1--1-00---000-00-00-----------0---------|

chorus x2
---------------------------------------------------------------|
---------------------------------------------------------------|
--------------9/11-----------9/11-9-7--------------------------|
--------------7/9------------7/9--7-5--------------------------|
55555555-0000-------55555555-----------------------------------|
55555555-0000-------55555555-----------------------------------|

---------------------------------------------------------------|
---------------------------------------------------------------|
--------------9/11-----------9/11-9-7--------------------------|
--------------7/9------------7/9--7-5--------------------------|
55555555-0000-------55555555-----------------------------------|
55555555-0000-------55555555-----------------------------------|

bridge
---------------------------------------------------------------|
---------------------------------------------------------------|
---------------------------------------------------------------|
---------------------------------------------------------------|
12/9-9/7-7-0000000000-12/9-9/7-7-000--------4/5----------------|
12/9-9/7-7-0000000000-12/9-9/7-7-0000-000-00-------------------|

---------------------------------------------------------------|
---------------------------------------------------------------|
---------------------------------------------------------------|
---------------------------------------------------------------|
12/9-9/7-7-0000000000-12/9-9/7-7-000---------------------------|
12/9-9/7-7-0000000000-12/9-9/7-7-0000-000-000------------------|

---------------------------------------------------------------|
---------------------------------------------------------------|
---------------------------------------------------------------|
---------------------------------------------------------------|
5---9---0------------------------------------------------------|
5---9---0------------------------------------------------------|

outro / breakdown
---------------------------------------------------------------|
---------------------------------------------------------------|
---------------------------------------------------------------|
---------------------------------------------------------------|
00-00----99-99-9-999999-44-44-444----55-55-5-555555------------|
00-00----99-99-9-999999-44-44-444----55-55-5-555555------------|

---------------------------------------------------------------|
---------------------------------------------------------------|
---------------------------------------------------------------|
---------------------------------------------------------------|
00-00----99-99-9-999999-44-44-444----55-55-5-555555------------|
00-00----99-99-9-999999-44-44-444----55-55-5-555555------------|
Добавлено: 01.09.2013
Другие материалы по этой песне:
  • Аккорды и текст

Страница создана 01.09.2013
http://primanota.ru/abandoned-by-bears/peter-youre-not-allowed-in-the-city-chords.htm
Привет, Гость.
Предлагаем пройти революционный курс по гитаре.
Подарок от PrimaNota.Ru, забирай!