PrimaNota.ru - самый крупный в мире бесплатный архив песенных текстов, аккордов, табулатур и нот


Abandon - Under Fire - таба, видео

Регистрация Запомнить меня
Войти через:  Facebook Google Twitter Vk Yandex Mail.ru

Abandon - Under Fire - таба, видео

Печатать
Просмотров: 117
Under Fire - Abandon (Key of C)

Verse 1:
Am                    F                          
They try to trip us up, they try to make us doubt
C                    G/B
Make us question what this life's about
Am                     F
Our minds are criminal, they try to steal the soul
C                   G/B                    Am
This moments pivotal who we choose to follow

Chorus:
F             C           G                  Am
We are under fire but we know, we know the truth in our hearts
F             C           G                  Am      G
We are under fire but we hold, we hold the proof of who you are
F                      C             G                 Am
And though we haven't seen your face, we know that we walk by faith
F             C            G          Am
We are under fire but it only burns, burns all doubt away

Verse 2:
They tell us we're all fools, that our minds are weak
How can we put our hope in someone we can't see
They come with ridicule to say that you're a fake
But we are not alone, you endured the same

Bridge: 
Am                     F                          C
We're chasing what's real, we're chasing what's true
               G        
We know it's God, we know it's You
Am                     F                          C
We're chasing what's real, we're chasing what's true
               G                   Am / F / G / G /
We know it's God, it's got to be You

Outro Chorus:
F             C           G                  Am
We are under fire but we know, we know the truth in our hearts
F             C           G                  Am      G
We are under fire but we hold, we hold the proof of who you are
F                      Am             G                 Am
And though we haven't seen your face, we know that we walk by faith
F             C            G          G
We are under fire but it only burns, burns all doubt away

Outro:
Am          F   C     G
All doubt away,    it burns all doubt away
Am          F   C     G                     Am
All doubt away,    it burns all doubt away


Tab

Lead Guitar:
Intro:
E|------------|-------------|------------|--------------|
B|-5--------5-|-6---------6-|-5--------5-|--------5-----|
G|---5-5--5---|---5-5---5---|---5-5--5---|-7-7--7---5-7-|
D|------------|-------------|------------|--------------|
A|------------|-------------|------------|--------------|
E|------------|-------------|------------|--------------|

Verse 1:
E|-------------------------|------------------------|
B|-------------10----------|------------10----------|
G|--------12------12----12-|-------12------12----12-|
D|-------------------10----|------------------10----|
A|-(12)--------------------|-(8)--------------------|
E|-------------------------|------------------------|

E|-------------------------|------------------------|
B|-------------10----------|------------10----------|
G|--------12------12----12-|-------12------12----12-|
D|-------------------10----|------------------10----|
A|-------------------------|------------------------|
E|-(12)--------------------|-(10)-------------------|

Chorus 1 & Chorus 2:
E|-------------------------|-------------------------|
B|-13-13-13-13-13-13-13-13-|-13-13-13-13-15-15-15-15-|
G|-------------------------|-------------------------|
D|-10-10-10-10-10-10-10-10-|-10-10-10-10-12-12-12-12-|
A|-------------------------|-------------------------|
E|-------------------------|-------------------------|

E|-------------------------|-12----12----12----12----|
B|-12-12-12-12-12-12-12-12-|----13----13----13----13-|
G|-------------------------|-------------------------|    X2
D|-9--9--9--9--9--9--9--9--|-------------------------|
A|-------------------------|-------------------------|
E|-------------------------|-------------------------|

E|-17-17-17-15-15-15-------|-------------------------|
B|-------------------17-17-|-17-17-17-17-17----------|
G|-------------------------|----------------17-17-17-|   X2
D|-------------------------|-------------------------|
A|-------------------------|-------------------------|
E|-------------------------|-------------------------|

E|-------------------------|-------------------------|
B|-13-13-13-13-13-13-13-13-|-13-13-13-13-15-15-15-15-|
G|-------------------------|-------------------------|
D|-10-10-10-10-10-10-10-10-|-10-10-10-10-12-12-12-12-|
A|-------------------------|-------------------------|
E|-------------------------|-------------------------|

E|-------------------------|-12----12----12----12----|
B|-12-12-12-12-12-12-12-12-|----13----13----13----13-|
G|-------------------------|-------------------------|    
D|-9--9--9--9--9--9--9--9--|-------------------------|
A|-------------------------|-------------------------|
E|-------------------------|-------------------------|

Verse 2:
E|-----------------|----------------|----------------|------------------|
B|-----------------|----------------|----------------|------------------|
G|--------12s14-12-|-------12s14-12-|--------9s10-9--|--------12-10-9---| 
D|-----10----------|----10----------|-----10---------|------------------|
A|--12-------------|--8-------------|--10------------|--10-12-----------|
E|-----------------|----------------|----------------|------------------|

E|--------15s17-15-|-------15s17-15-|-------12s13-12-|------------------|
B|-----------------|----------------|----------------|--------8-6-5-----|
G|--------12s14-12-|-------12s14-12-|--------9s10--9-|--------------7-5-|
D|-----10----------|----10----------|-----10---------|------------------|
A|--12-------------|--8-------------|--10------------|--10-12-----------|
E|-----------------|----------------|----------------|------------------|

Outro Chorus:
E|-------------------------|-------------------------|
B|-13-13-13-13-13-13-13-13-|-13-13-13-13-15-15-15-15-|
G|-------------------------|-------------------------|
D|-10-10-10-10-10-10-10-10-|-10-10-10-10-12-12-12-12-|
A|-------------------------|-------------------------|
E|-------------------------|-------------------------|

E|-------------------------|-12----12----12----12----|
B|-12-12-12-12-12-12-12-12-|----13----13----13----13-|
G|-------------------------|-------------------------|    X2
D|-9--9--9--9--9--9--9--9--|-------------------------|
A|-------------------------|-------------------------|
E|-------------------------|-------------------------|

E|-17-17-17-17-17-17-17-17-|-17-17-17-17-17-17-17-17-|
B|-------------------------|-------------------------|
G|-------------------------|-------------------------|
D|-------------------------|-------------------------|
A|-------------------------|-------------------------|
E|-------------------------|-------------------------|

E|-17-17-17-15-15-15-------|-------------------------|
B|-------------------17-17-|-17-17-17-17-17----------|
G|-------------------------|----------------17-17-17-|  
D|-------------------------|-------------------------|
A|-------------------------|-------------------------|
E|-------------------------|-------------------------|

E|-------------------------|-------------------------|
B|-13-13-13-13-13-13-13-13-|-13-13-13-13-15-15-15-15-|
G|-------------------------|-------------------------|
D|-10-10-10-10-10-10-10-10-|-10-10-10-10-12-12-12-12-|
A|-------------------------|-------------------------|
E|-------------------------|-------------------------|

E|-------------------------|-12----12----12----12----|
B|-12-12-12-12-12-12-12-12-|----13----13----13----13-|
G|-------------------------|-------------------------|    
D|-9--9--9--9--9--9--9--9--|-------------------------|
A|-------------------------|-------------------------|
E|-------------------------|-------------------------|

Outro:
E|-------------------------|-------------15-15-15-15-|
B|-17-17-17-17-17-17-17-17-|-18-18-18-18-------------|
G|-------------------------|-------------------------|
D|-------------------------|-------------------------|
A|-------------------------|-------------------------|
E|-------------------------|-------------------------|

E|-------------------------|-------------------------|
B|-17-17-17-17-17-17-17-17-|-------------------------|
G|-------------------------|-16-16-16-16-16-16-16-16-|
D|-------------------------|-------------------------|  x2
A|-------------------------|-------------------------|
E|-------------------------|-------------------------|
Добавлено: 02.07.2013
Другие материалы по этой песне:
  • Аккорды и текст

Страница создана 02.07.2013
http://primanota.ru/abandon/under-fire-chords.htm
Привет, Гость.
Предлагаем пройти революционный курс по гитаре.
Подарок от PrimaNota.Ru, забирай!