PrimaNota.ru - самый крупный в мире бесплатный архив песенных текстов, аккордов, табулатур и нот


Aastha - Aatma - таба, видео

Регистрация Запомнить меня
Войти через:  Facebook Google Twitter Vk Yandex Mail.ru

Aastha - Aatma - таба, видео

Печатать
Просмотров: 309
Уроки эстрадного вокала в Санкт-Петербурге
This is my first textual tab.I have been encoding most in GP format.
check this out..
song:aatma(band:AASTHA)
Intro : A/E/F#m/D 
       A
timro mamata, ani
  E
nyano kakhko maya paune
  F#m                     D
mero chahana, timro sathma rahane mero
      A                   E
mero kalpana ani, timro samjhanale malai
              F#m                            D
sadhai nyano tanp di i rahanch, sadhai jyudo banai dincha
E                               F#m
yaad garna kina garo, bhaidiyeko hola
E                       F#m             D
pheri mero maan kina, roi roi roi dincha
      A                   E
aatma ma timro baas cha, mutu ma timrai dhadkan
         F#m                    D
sayaad pirliyau ki katai,dhukdhukauncha mutu jhan jhan
  A                       E
nasama timro maya cha, aankhama timrai tasbir
         F#m                         D
sayad samjhi royou ki katai, bagi dincha aansu jhan jhan
        A                                 E
sayad mero, pratichya nai lamo bhayo ki kaso
                        F#m                        D
tesaile hola, mero parkhaima pani yesto pida bhaidiyeko
       A                                E
ma ta mero, dinko sapanima raat \ko anidoma
aaljhi baseko chu
      F#m
timi aune, din gandai parkhi baseko chu
 E
yaad garna kina........
 A
timi bina, mero yo jiban
 E
kina ho aadhuro lagcha
 F#m                                D
timi kaha auna khojchu ma , tara garho cha
  A          
sayad timilai pani gahro bhayo hola
   E                      F#m
tesaile mero man yeha, roi roi roi dincha
   A
aatma ma timro baas.....


INTRO:

     A                         E                           
     ^                         ^                           
     
E||--0----5--4-----5--4-----|--0--------------------------|
B||--2----------5--------5--|--0----5s--7s--5--5s--7s--5--|
G||--2----------------------|--1--------------------------|
D||--2----------------------|--2--------------------------|
A||--0----------------------|--2--------------------------|
E||-------------------------|--0--------------------------|


  F#m                                                 D                   
  ^                                                   ^                   
  
--2----5--4-----5--4-----|--5--4-----5--4----------|--2-----------------||
--2----------5--------5--|--------5--------5-------|--3-----------------||
--2----------------------|-------------------------|--2-----------------||
--4----------------------|-------------------------|--0-----------------||
--0----------------------|-------------------------|--------------------||
--2----------------------|-------------------------|--------------------||



LEAD(1ST PART):
      
E||--19----17----16----17----|--------19----17----16----|
B||--------------------------|--17----------------------|
G||--------------------------|--------------------------|
D||--------------------------|--------------------------|
A||--------------------------|--------------------------|
E||--------------------------|--------------------------|


http://www.musicmyth.blogspot.com


   
----------------------------|---------------||
--17----14~-----------------|---------------||
---------------16b----16----|--14-----------||
----------------------------|--------16~----||
----------------------------|---------------||
----------------------------|---------------||

Добавлено: 06.04.2012
Другие материалы по этой песне:

Страница создана 03.04.2012
http://primanota.ru/aastha/aatma-chords.htm
Привет, Гость.
Предлагаем пройти революционный курс по гитаре.
Подарок от PrimaNota.Ru, забирай!