PrimaNota.ru - самый крупный в мире бесплатный архив песенных текстов, аккордов, табулатур и нот


Aashiqui 2 - Sun Raha Hai - аккорды и текст, видео

Регистрация Запомнить меня
Войти через:  Facebook Google Twitter Vk Yandex Mail.ru

Aashiqui 2 - Sun Raha Hai - аккорды и текст, видео

Печатать
Просмотров: 1282
Уроки эстрадного вокала в Санкт-Петербурге
Sun Raha Hai
Aashiqui 2
----------------------------------------------------------------
                           Sun Raha Hai- Aashiqui 2
-------------------------------------------------------------------------------
Tabbed by:Rishabh Tripathi
E-mail:rishabh0796@live.com/gmail.com

Chords with Capo on 3rd Fret:

 Am , F , G , Em , C

Chords Without Capo:

Cm(instead of Am), G#(instead of F), A#(instead of G), Gm(instead of Em), D#(instead of C)..


INTRO : With Capo on 3rd Fret

         Am                C                  G
e|------------------|------------------|---------------|---------------|
B|----------1-------|----------1-------|---------3-----|---------------|
G|-------------0----|-------------0----|------0-----0--|---------------|  
D|------2-----------|------2-----------|--0------------|---0h2p0-------|  
A|--0---------------|--3---------------|---------------|-----------3---|
E-------------------|------------------|---------------|---------------|

Apne karam kee kar ataayein


Yaaraa, Yaaraa, yaaraa................                 

                  Repeat these Tabs again & again....

Im Playing with Capo..!!


Song Begins:

      Am
Mujh ko iraade de,
      F
Kasmein de, vaade de
      G                 F           Em
Meri duaaon ke ishaaron ko sahaare  de.....
      Am
Dil ko thikaaney de
      Am
Naye bahaaney de
      G 
Khwaabon ki baarishon ko
      F            Em
Mausam ke paimaane de.....

  Am                 F
Apne karam ki kar ataayein
  Am                 G
Kar de idhar bhi tu nigaahein............


--------------------------|

         Am
Sun rahaa hai naa tu
         G
Ro rahaa hoon main
         Am             F  
Sun raha hai naa tu...
  F                Em
Kyun ro raha hoon main...  x2 times


--------------------------|

Then Again Intro Parts....


   Am         F
Manzilein ruswa hain
   G         Em
Khoyaa hai raasta
   Am      F
Aaye le jaaye
   G       Em
Itni si iltijaa
    Am     F/G    C
Ye meri zamanat hai
    Am     F/G   C
Tu meri amanat hai..
 E
Haan....


  Am                 F
Apne karam ki kar ataayein
  Am                 G
Kar de idhar bhi tu nigaahein..........


--------------------------|

         Am
Sun rahaa hai naa tu
         G
Ro rahaa hoon main
         Am             F  
Sun raha hai naa tu...
  F                Em
Kyun ro raha hoon main...  


--------------------------|


  Am         F
Waqt bhi thehra hai
  G         Em
Kaise kyoon ye huaa
  Am         F
Kaash tuu aise aaye
  G         Em
Jaise koi duaa

   Am         F/G    C
Tu rooh kee raahat hai
   Am      F/G    C
Tu meri ibaadat hai..

  Am                 F
Apne karam ki kar ataayein
  Am                 G
Kar de idhar bhi tu nigaahein..........

--------------------------|

         Am
Sun rahaa hai naa tu
         G
Ro rahaa hoon main
         Am             F  
Sun raha hai naa tu...
  F                Em
Kyun ro raha hoon main...  


--------------------------|
  

                                            END
                                       >>ALL BY ME
Добавлено: 30.09.2013
Вам также может быть интересно:
Другие материалы по этой песне:

Страница создана 11.09.2013
http://primanota.ru/aashiqui-2/sun-raha-hai-chords.htm
Привет, Гость.
Предлагаем пройти революционный курс по гитаре.
Подарок от PrimaNota.Ru, забирай!