PrimaNota.ru - самый крупный в мире бесплатный архив песенных текстов, аккордов, табулатур и нот


Aaron West And The Roaring Twenties - Get Me Out Of Here Alive - аккорды и текст, таба, видео

Регистрация Запомнить меня
Войти через:  Facebook Google Twitter Vk Yandex Mail.ru

Aaron West And The Roaring Twenties - Get Me Out Of Here Alive - аккорды и текст, таба, видео

Печатать
Просмотров: 94
Get Me Out Of Here Alive
Aaron West And The Roaring Twenties
AARON WEST AND THE ROARING TWENTIES - Get Me Out of Here Alive

Decided to use Matt9924's intro tab as a basis to figure out the rest of the chords. Play the riff through
all of the verses, and for the chorus strum them as open chords.


Tuning: Standard


Intro/Verse:
    G                     D          C
e|-----------------------------------------|
B|-----------------------------------------|
G|---------0--------0---------0-------0----|
D|------------0-----0-------4---0---2---0--|
A|----0h2-----------2-----5-------3--------|
E|--3------------3--3--3-------------------|
 |                                         |
e|-----------------------------------------|-----------|
B|-----------------------/7-------5--------|-3---------| (
Добавлено: 31.10.2015
Другие материалы по этой песне:
  • Аккорды и текст

Страница создана 26.07.2014
http://primanota.ru/aaron-west-and-roaring-twenties/get-me-out-of-here-alive-chords.htm
Привет, Гость.
Предлагаем пройти революционный курс по гитаре.
Подарок от PrimaNota.Ru, забирай!