PrimaNota.ru - самый крупный в мире бесплатный архив песенных текстов, аккордов, табулатур и нот


Aaron Neville - Performance - бас-таба, видео

Регистрация Запомнить меня
Войти через:  Facebook Google Twitter Vk Yandex Mail.ru

Aaron Neville - Performance - бас-таба, видео

Печатать
Просмотров: 108
Tabbed by: 6METAL6BASSIST6
E-mail: petergriffinav@gmail.com

Tuning: EADG

0:04

G|----------------------------------------------------------------|
D|----------------------------------------------------------------|
A|----------------------------------------------------------------|
E|3---------------------------------------------------------------|

G|----------------------------------------------------------------|
D|----------------------------------------------------------------|
A|------------------------------------------------------------5---|
E|3---------------------------------------------------------------|

G|----------------------------------------------------------------|
D|----------------------------------------------------------------|
A|----------------------------------------------------------------|
E|3---------------------------------------------------------------|

G|----------------------------------------------------------------|
D|------------------------------------------------4---------------|
A|----------------------------0---2---------------------------2---|
E|3-----------------------3---------------------------------------|

G|----------------------------------------------------------------|
D|2-----------------------2---4---5-------------------------------|
A|------------------------------------------------0-------2-------|
E|----------------------------------------------------------------|

G|----------------------------------------------------------------|
D|----------------------------------------------------------------|
A|3-------------------------------2-------------------------------|
E|----------------------------------------------------------------|

G|----------------------------------------------------------------|
D|------------------------------------------------1---------------|
A|5-------------------------------2-------------------------------|
E|----------------------------------------------------------------|

G|----------------------------------------------------------------|
D|2-----------------------2---------------------------------------|
A|--------------------2-------5---3---------------------/-5-------|
E|----------------------------------------------------------------|

0:33

G|----------------------------------------------------------------|
D|----------------------------------------------------------------|
A|------------------------------------------------0-------2-------|
E|3---------------------------------------------------------------|

G|----------------------------------------------------------------|
D|----------------------------------------------------------------|
A|3-------------------------------2-------------------------------|
E|----------------------------------------------------------------|

G|----------------------------------------------------------------|
D|----------------------------------------------------------------| x2
A|5---------------------------------------------------------------|
E|----------------------------------------------------------------|

0:48

G|----------------------------------------------------------------|
D|------------------------------------------------4---------------|
A|--------------------------------2-----------2---------------2---|
E|3---------------------------------------------------------------|

G|----------------------------------------------------------------|
D|2---------------------------------------------------------------|
A|------------------------------------------------0-------2-------|
E|----------------------------------------------------------------|

G|----------------------------------------------------------------|
D|----------------------------------------------------------------|
A|3-------------------------------2-------------------------------|
E|----------------------------------------------------------------|

G|----------------------------------------------------------------|
D|--------------------------------------------------------4-------|
A|5-------------------------------2-------------------2-------2---|
E|----------------------------------------------------------------|

G|----------------------------------------------------------------|
D|2-----------------------2---------------------------------------|
A|--------------------2-------5---3-----------------------5-------|
E|----------------------------------------------------------------|

G|----------------------------------------------------------------|
D|----------------------------------------------------------------|
A|----------------------------------------------------------------|
E|3---------------------------2---0-------------------------------|

G|----------------------------------------------------------------|
D|----------------------------------------------------------------|
A|3-------------------------------5-------------------------------|
E|----------------------------------------------------------------|

G|----------------------------------------------------------------|
D|----------------------------------------------------------------|
A|----------------------------------------------------------------|
E|3---------------------------------------------------------------|

1:16

G|----------------------------------------------------------------|
D|----------------------------------------------------------------|
A|5---------------------------5---5-------------------------------|
E|----------------------------------------------------------------|

G|----------------------------------------------------------------|
D|------------------------------------------------------------2---|
A|--------------------------------------------------------2-------|
E|3---------------------------------------------------------------|

G|----------------------------------------------------------------|
D|----------------------------------------------------------------|
A|5-------------------------------------------------------5-------|
E|----------------------------------------------------------------|

G|----------------------------------------------------------------|
D|----------------------------------------------------------------|
A|----------------------------------------------------------------|
E|3---------------------------------------------------------------|

1:30

G|----------------------------------------------------------------|
D|----------------------------------------------------------------|
A|5-------------------------------2-------------------------------|
E|----------------------------------------------------------------|

G|----------------------------------------------------------------|
D|2---------------------------------------------------------------|
A|----------------------------------------------------------------|
E|--------------------------------3-------------------------------|

G|----------------------------------------------------------------|
D|----------------------------------------------------------------|
A|3-------------------------------2-------------------------------|
E|----------------------------------------------------------------|

G|----------------------------------------------------------------|
D|----------------------------------------------------------------|
A|5---------------------------------------------------------------|
E|----------------------------------------------------------------|

1:45

G|----------------------------------------------------------------|
D|2-----------------------2-------------------------------2-------|
A|----------------------------5---2-------------------5-----------|
E|----------------------------------------------------------------|

G|----------------------------------------------------------------|
D|----------------------------------------------------------------|
A|----------------------------------------------------------------|
E|3-------------------------------------------------------3---2---|

G|----------------------------------------------------------------|
D|------------------------2---------------------------------------|
A|--------------------2-------5---3-------------------------------|
E|0---------------------------------------------------------------|

G|----------------------------------------------------------------|
D|----------------------------------------------------------------|
A|----------------------------------------------------------------|
E|3-----------------------------------------------3---2-----------|

G|----------------------------------------------------------------|
D|----------------------------------------------------------------|
A|--------------------------------3-------------------------------|
E|0---------------------------------------------------------------|

G|----------------------------------------------------------------|
D|----------------------------------------------------------------|
A|------------------------------------------------0-------2-------|
E|3---------------------------------------3-----------------------|

G|--------------------------------------------------------5-------|
D|------------------------------------------------5---------------|
A|3---------------------------------------------------------------|
E|----------------------------------------------------------------|

G|4-----------------------7---8---9-------------------------------|
D|----------------------------------------------------------------|
A|----------------------------------------------------------------|
E|----------------------------------------------------------------|

2:13

G|----------------------------------------------------------------|
D|--------------------------------4---------------------------4---|
A|--------------------------------------------------------2-------|
E|3---------------------------------------------------------------|

G|----------------------------------------------------------------|
D|2-------------------------------5-------------------------------|
A|------------------------------------------------0-------2-------|
E|----------------------------------------------------------------|

G|----------------------------------------------------------------|
D|----------------------------------------------------------------|
A|3-------------------------------2-------------------------------|
E|----------------------------------------------------------------|

G|----------------------------------------------------------------|
D|------------------------------------------------1---------------|
A|5-----------------------4---3---2-------------------------------|
E|----------------------------------------------------------------|

G|----------------------------------------------------------------|
D|2-----------------------2---------------------------------------|
A|--------------------2-------5---3-------3---------------5-------|
E|----------------------------------------------------------------|

G|----------------------------------------------------------------|
D|----------------------------------------------------------------|
A|----------------------------------------------------------------|
E|3-------------------------------0-------------------------------|

G|----------------------------------------------------------------|
D|----------------------------------------------------------------|
A|3-------------------------------5-------------------------------|
E|----------------------------------------------------------------|

G|----------------------------------------------------------------|
D|----------------------------------------------------------------|
A|----------------------------------------------------------------|
E|3---------------------------------------------------------------|

2:42

G|----------------------------------------------------------------|
D|----------------------------------------------------------------|
A|5---------------------------------------------------------------|
E|----------------------------------------------------------------|

G|----------------------------------------------------------------|
D|----------------------------------------------------------------|
A|----------------------------------------------------------------|
E|3---------------------------------------------------------------|

G|----------------------------------------------------------------|
D|----------------------------------------------------------------|
A|5---------------------------------------------------------------|
E|----------------------------------------------------------------|

G|----------------------------------------------------------------|
D|------------------------2---------------------------------------|
A|----------------2-----------------------------------------------|
E|0---------------------------------------------------------------|
Добавлено: 03.07.2015
Вам также может быть интересно:
Другие материалы по этой песне:
  • Аккорды и текст

Страница создана 03.07.2015
http://primanota.ru/aaron-neville/performance-chords.htm
Привет, Гость.
Предлагаем пройти революционный курс по гитаре.
Подарок от PrimaNota.Ru, забирай!