PrimaNota.ru - самый крупный в мире бесплатный архив песенных текстов, аккордов, табулатур и нот


Aaron Neville - Been So Wrong - бас-таба, видео

Регистрация Запомнить меня
Войти через:  Facebook Google Twitter Vk Yandex Mail.ru

Aaron Neville - Been So Wrong - бас-таба, видео

Печатать
Просмотров: 54
Новый альбом группы 'Черный Кузнец' по культовому сериалу 'Сверхъестественное'!
Tabbed by: 6METAL6BASSIST6
E-mail: petergriffinav@gmail.com

Tuning: EADG

G|----------------------------------------------------------------|
D|----------------------------------------------------------------| x4
A|----------------------------------------------------------------|
E|4-----------------------------------------------11------\-------|

0:14

G|----------------------------------------------------------------|
D|----------------------------------------------------------------|
A|----------------------------3---4-----------------------6-------|
E|4---------------------------------------------------------------|

G|----------------------------------------------------------------|
D|----------------------------------------------------------------|
A|--------------------------------4-----------------------6-------|
E|4---------------------------------------------------------------|

G|----------------------------------------------------------------|
D|----------------------------------------------------------------|
A|----------------------------3---4-----------------------6-------|
E|4---------------------------------------------------------------|

G|----------------------------------------------------------------|
D|------------------------------------------------6---------------|
A|----------------------------3---4-------------------------------|
E|4---------------------------------------------------------------|

0:30

G|----------------------------------------------------------------|.
D|----------------------------------------------------------------|.
A|4-------------------------------4-----------------------6-------|.
E|----------------------------4-----------------------------------|.
                                                                   . x2
G|----------------------------------------------------------------|.
D|----------------------------------------------------------------|.
A|----------------------------6---------------------------3-------|.
E|4-------------------------------4-------------------------------|.

0:45

G|----------------------------------------------------------------|
D|----------------------------------------------------------------|
A|4-------------------------------4-----------------------6-------|
E|----------------------------4-----------------------------------|

G|----------------------------------------------------------------|
D|6---------------------------------------------------------------|
A|----------------------------6-----------------------------------|
E|--------------------------------4-------------------------------|

G|----------------------------------------------------------------|
D|----------------------------------------------------------------|
A|--------------------------------6-------------------------------|
E|6---------------------------------------------------------------|

0:56

G|----------------------------------------------------------------|
D|----------------------------------------------------------------| x4
A|----------------------------------------------------------------|
E|4-----------------------------------------------11------\-------|

1:11

G|----------------------------------------------------------------|
D|----------------------------------------------------------------|
A|----------------------------3---4---------------------------6---|
E|4---------------------------------------------------------------|

G|----------------------------------------------------------------|
D|----------------------------------------------------------------| x2
A|----------------------------3---4-----------------------6-------|
E|4---------------------------------------------------------------|

G|----------------------------------------------------------------|
D|------------------------------------------------6---------------|
A|----------------------------3---4-------------------------------|
E|4---------------------------------------------------------------|

1:27

G|----------------------------------------------------------------|.
D|----------------------------------------------------------------|.
A|4-------------------------------4-----------------------6-------|.
E|----------------------------4-----------------------------------|.
                                                                   . x2
G|----------------------------------------------------------------|.
D|----------------------------------------------------------------|.
A|----------------------------6---------------------------3-------|.
E|4-------------------------------4-------------------------------|.

1:42

G|----------------------------------------------------------------|
D|----------------------------------------------------------------|
A|4-------------------------------4-----------------------6-------|
E|----------------------------4-----------------------------------|

G|----------------------------------------------------------------|
D|6---------------------------------------------------------------|
A|----------------------------6-----------------------------------|
E|--------------------------------4---------------------------5---|

G|----------------------------------------------------------------|
D|----------------------------------------------------------------|
A|--------------------------------6-------------------------------|
E|6---------------------------------------------------------------|

1:52

G|----------------------------------------------------------------|
D|----------------------------6-------------------------------6---| x6
A|----------------------------------------------------------------|
E|4-------------------------------4-------------------------------|

2:14

G|----------------------------------------------------------------|
D|----------------------------------------------------------------|
A|----------------------------3---4---------------------------6---|
E|4---------------------------------------------------------------|

G|----------------------------------------------------------------|
D|----------------------------------------------------------------|
A|----------------------------3---4-----------------------6-------|
E|4---------------------------------------------------------------|

G|----------------------------------------------------------------|
D|----------------------------------------------------------------|
A|----------------------------3---4---------------------------6---|
E|4---------------------------------------------------------------|

G|----------------------------------------------------------------|
D|------------------------------------------------6---------------|
A|----------------------------3---4-------------------------------|
E|4---------------------------------------------------------------|

2:29

G|----------------------------------------------------------------|.
D|----------------------------------------------------------------|.
A|4-------------------------------4-----------------------6-------|.
E|----------------------------4-----------------------------------|.
                                                                   . x2
G|----------------------------------------------------------------|.
D|----------------------------------------------------------------|.
A|----------------------------6---------------------------3-------|.
E|4-------------------------------4-------------------6-----------|.

2:45

G|----------------------------------------------------------------|
D|----------------------------------------------------------------|
A|4-------------------------------4-----------------------6-------|
E|----------------------------4-----------------------------------|

G|----------------------------------------------------------------|
D|6---------------------------------------------------------------|
A|----------------------------6-----------------------------------|
E|--------------------------------4-------------------------------|

G|----------------------------------------------------------------|
D|----------------------------------------------------------------|
A|----------------------------5---6-------------------6-----------|
E|6---------------------------------------------------------------|

2:56

G|----------------------------------------------------------------|
D|----------------------------------------------------------------|
A|------------------------3-------4---------------------------6---|
E|4-----------4-------6-------------------------------------------|

G|----------------------------------------------------------------|
D|----------------------------------------------------------------|
A|------------------------3-------4-----------------------6-------|
E|4-----------4-------6-------------------------------------------|

G|----------------------------------------------------------------|
D|----------------------------------------------------------------| x2
A|------------------------3-------4-----------------------6---6---|
E|4-----------4-------6-------------------------------------------|

3:11

G|----------------------------------------------------------------|
D|----------------------------------------------------------------|
A|------------------------3-------4-----------------------6-------|
E|4-----------4-------6-------------------------------------------|

G|----------------------------------------------------------------|
D|----------------------------------------------------------------| x5
A|------------------------3-------4-----------------------6---6---|
E|4-----------4-------6-------------------------------------------|

G|----------------------------------------------------------------|
D|----------------------------------------------------------------| until fadeout.
A|------------------------3-------4-----------------------6-------|
E|4-----------4-------6-------------------------------------------|
Добавлено: 25.02.2018
Вам также может быть интересно:
Другие материалы по этой песне:
  • Аккорды и текст

Страница создана 25.02.2018
http://primanota.ru/aaron-neville/been-so-wrong-chords.htm
Привет, Гость.
Предлагаем пройти революционный курс по гитаре.
Подарок от PrimaNota.Ru, забирай!