PrimaNota.ru - самый крупный в мире бесплатный архив песенных текстов, аккордов, табулатур и нот


A$AP Rocky - Ld - таба, видео

Регистрация Запомнить меня
Войти через:  Facebook Google Twitter Vk Yandex Mail.ru

A$AP Rocky - Ld - таба, видео

Печатать
Просмотров: 120
Авторы: Rakim Mayers, Hector Delgado

-------------------------------------------------------------------------------
                             LSD - ASAP ROCKY
-------------------------------------------------------------------------------
Tabbed by: Mert Benning
E-mail: mert321@mail.com

Use a shitload of reverb

Tuning: Standard ( E A D G B e )

e|---------------------------------------------------------------------------|
B|-------------12/7----------------------------------------------------------|
G|---5-----------------------------------------------------------------------|
D|---------------------------------------------------------------------------|
A|---------------------------------------------------------------------------|
E|---------------------------------------------------------------------------|

e|--------------12/7---------------------------------------------------------|
B|--------------12/7-7h9h7---------------------------------------------------|
G|---5-----------------------------------------------------------------------|
D|---------------------------------------------------------------------------|
A|---------------------------------------------------------------------------|
E|---------------------------------------------------------------------------|



************************************

| /   slide up
| \   slide down
| h   hammer-on
| p   pull-off
| ~   vibrato
| +   harmonic
| x   Mute note
| b   Bend
| pb  Pre-bend
| br  Bend release
| pbr Pre-bend release
| brb Bend release bend

************************************
Добавлено: 06.06.2016
Другие материалы по этой песне:
  • Аккорды и текст

Страница создана 06.06.2016
http://primanota.ru/aap-rocky/ld-chords.htm
Привет, Гость.
Предлагаем пройти революционный курс по гитаре.
Подарок от PrimaNota.Ru, забирай!