PrimaNota.ru - самый крупный в мире бесплатный архив песенных текстов, аккордов, табулатур и нот


A$AP Rocky - Goldie - таба, видео

Регистрация Запомнить меня
Войти через:  Facebook Google Twitter Vk Yandex Mail.ru

A$AP Rocky - Goldie - таба, видео

Печатать
Просмотров: 52
==========================================================================================================
                                       A$AP ROCKY - Goldie Tab
==========================================================================================================

Intro:
       F#m       
E|---------|
B|---------|
G|--2--2---|
D|---4--4--|   X2     
A|---------|
E|---------|


Tune Throughout

E|--------0-2-4-5--4--2--0----0-|
B|------2-------------------2---|
G|----2-------------------------| continuously
D|-4----------------------------| repeat
A|------------------------------| .....
E|------------------------------|


Play with song to figure out timing.
Добавлено: 06.06.2016
Вам также может быть интересно:
Другие материалы по этой песне:
  • Аккорды и текст

Страница создана 06.06.2016
http://primanota.ru/aap-rocky/goldie-chords.htm
Привет, Гость.
Предлагаем пройти революционный курс по гитаре.
Подарок от PrimaNota.Ru, забирай!