PrimaNota.ru - самый крупный в мире бесплатный архив песенных текстов, аккордов, табулатур и нот


Aa Bondy - Skull And Bones - аккорды и текст, видео

Регистрация Запомнить меня
Войти через:  Facebook Google Twitter Vk Yandex Mail.ru

Aa Bondy - Skull And Bones - аккорды и текст, видео

Печатать
Просмотров: 276
Уроки эстрадного вокала в Санкт-Петербурге
Skull And Bones
Aa Bondy
-------------------------------------------------------------------------------
                             SKULL AND BONES - AA BONDY
-------------------------------------------------------------------------------
Tabbed by: JUSTIN EPPERSON
E-mail: justinepperson@hotmail.com

Tuning: CGDGBE (LOW TO HIGH)

    Am   Em   C   D*  D

e|--0----0----0-------2----------------------------------------------------------|
B|--0----0----1---3---3----------------------------------------------------------|
G|--0----0----0---2---2----------------------------------------------------------|
D|--7----2----2---0---4----------------------------------------------------------|
G|--9----4----0---2---2----------------------------------------------------------|
C|--9----4----0---2---2----------------------------------------------------------|



INTRO                           Verse-There in the wheat....
    Am                                Em
e|--------------------------------------------------------------------------|
B|------------0----------------0----------------0----------------0----------|
G|--------0-----0----------0-----0----------0-----0----------0-----0--------|
D|------7---7-----7------7---7-----7------2---2-----2------2---2-----2------|
G|----9----------------9----------------4----------------4------------------|
C|--9---------------7/9--------------7/4-------------2/4---------------2/9--|



Verse-I don't know....                Patriot.....
    Am               Am               Em              Em
e|--------------------------------------------------------------------------|
B|------------0----------------0----------------0----------------0----------|
G|--------0-----0----------0-----0----------0-----0----------0-----0--------|
D|------7---7-----7------7---7-----7------2---2-----2------2---2-----2------|
G|----9----------------9----------------4----------------4------------------|
C|--9---------------7/9--------------7/4-------------2/4---------------2/9--|



Verse-Maybe Howling...
    Am               Am       
e|-----------------------------------|
B|------------0----------------0-----|
G|--------0-----0----------0-----0---|
D|------7---7-----7------7---7-----7-|
G|----9----------------9-------------|
C|--9---------------7/9--------------|


Chorus-

    C      D*     Em    D     C

e|--0-------------0-----2-----0---------------------------------------------------|
B|--1------3------0-----3-----1---------------------------------------------------|
G|--0------2------0-----2-----0---------------------------------------------------|
D|--2------0------2-----4-----2---------------------------------------------------|
G|--0------2------4-----2-----0---------------------------------------------------|
C|--0------2------4-----2-----0---------------------------------------------------|



Verse:
Em
There in the wheat,
Em
I heard you sigh.
Am
I don't know the size of it.
Am
Who can know?
Em
Patriot,
Em
Under the spell,
Am
Maybe howlin' underground,
Am
Ear at the dirt.

Chorus:
C                                    D*
Running home with the notion in your head
Em                              D    C
Running home with the notion in your head
C              Em
Shadows on the land

Em
Whiter the whale
Nothin' is wrong
Am
I cannot be here today
I will not be
Em
Skull and Bones
Taking the fear
Am
Something for a hungry mouth
Something for

Chorus:
C                                    D*
Running home with the notion in your head
Em                             D     C
Running home with the notion in your head
C              Em
Shadows on the land
Добавлено: 24.04.2016
Другие материалы по этой песне:
  • Аккорды и текст

Страница создана 24.04.2016
http://primanota.ru/aa-bondy/skull-and-bones-chords.htm
Привет, Гость.
Предлагаем пройти революционный курс по гитаре.
Подарок от PrimaNota.Ru, забирай!