PrimaNota.ru - самый крупный в мире бесплатный архив песенных текстов, аккордов, табулатур и нот


A World Witout Weakness - Everything Is Broken - таба, видео

Регистрация Запомнить меня
Войти через:  Facebook Google Twitter Vk Yandex Mail.ru

A World Witout Weakness - Everything Is Broken - таба, видео

Печатать
Просмотров: 76
Title: Everything is broken
Artist: A world without weakness
Album: Dreams of despair
Tabber: Michaël Gagnon
Tempo = 60
Andy

Legend
L - tied note
x - dead note
h - hammer on/pull off
b - bend
s - slide
~ - vibrato
g - ghost note
> - accentuated note
t - trill
M - palm mute
. - staccato
P - popping (bass)
S - slapping (bass)
+ - tapping
W - wide vibrato
< - fade in
w - whammy bar
= - tremolo picking
v - brush up
^ - brush down
V - pick stroke up
n - pick stroke down


D |----------------------------------------------------------------------------|
A |----------------------------------------------------------------------------|
F |----------------------------------------------------------------------------|
C |--5b----------------0--------------------0--0--0--0--0--0--0--0--0--0--0----|
G |--5b----------------0--------------------0--0--0--0--0--0--0--0--0--0--0----|
C |--5b----------------0--------------------0--0--0--0--0--0--0--0--0--0--0----|


----------------------------------------------------------------------------|
----------------------------------------------------------------------------|
----------------------------------------------------------------------------|
--5b----------------0--------------------0--0--0--0--0--0--0--0--0--0--0----|
--5b----------------0--------------------0--0--0--0--0--0--0--0--0--0--0----|
--5b----------------0--------------------0--0--0--0--0--0--0--0--0--0--0----|


----------------------------------------------------------------------------|
----------------------------------------------------------------------------|
----------------------------------------------------------------------------|
--5b----------------0--------------------0--0--0--0--0--0--0--0--0--0--0----|
--5b----------------0--------------------0--0--0--0--0--0--0--0--0--0--0----|
--5b----------------0--------------------0--0--0--0--0--0--0--0--0--0--0----|


----------------------------------------------------------------------------|
----------------------------------------------------------------------------|
----------------------------------------------------------------------------|
--5b----------------0--------------------0--0--0--0--0--0--0--0--0--0--0----|
--5b----------------0--------------------0--0--0--0--0--0--0--0--0--0--0----|
--5b----------------0--------------------0--0--0--0--0--0--0--0--0--0--0----|


-------|----------------------------------------------------|
-------|----------------------------------------------------|
-------|----------------------------------------------------|
--0----|----------------------------------------------------|
--0----|--------------3-----------3-----5-------------------|
--0----|--0--0--0--0--------0-----------------0--0--0--0----|


----------------------------|
----------------------------|
----------------------------|
-----------------0--3--0----|
--3-----3--5-----0--3--0----|
-----0-----------0--3--0----|


----------------------------------------------------|
----------------------------------------------------|
----------------------------------------------------|
----------------------------------------------------|
--------------3-----------3-----5-------------------|
--0--0--0--0--------0-----------------0-----0-------|


----------------------------|
----------------------------|
----------------------------|
--8--7--0--5-----7--3--0----|
--8--7--0--5-----7--3--0----|
--8--7--0--5-----7--3--0----|


----------------------------------------------------|
----------------------------------------------------|
----------------------------------------------------|
----------------------------------------------------|
--------------3-----------3-----5-------------------|
--0--0--0--0--------0-----------------0--0--0--0----|


----------------------------|
----------------------------|
----------------------------|
-----------------0--3--0----|
--3-----3--5-----0--3--0----|
-----0-----------0--3--0----|


----------------------------------------------------|
----------------------------------------------------|
----------------------------------------------------|
----------------------------------------------------|
--------------3-----------3-----5-------------------|
--0--0--0--0--------0-----------------0-----0-------|


----------------------------|
----------------------------|
----------------------------|
--8--7--0--5-----7--3--0----|
--8--7--0--5-----7--3--0----|
--8--7--0--5-----7--3--0----|


----------------------------------------------------|
----------------------------------------------------|
----------------------------------------------------|
----------------------------------------------------|
--------------3-----------3-----5-------------------|
--0--0--0--0--------0-----------------0--0--0--0----|


----------------------------|
----------------------------|
----------------------------|
-----------------0--3--0----|
--3-----3--5-----0--3--0----|
-----0-----------0--3--0----|


----------------------------------------------------|
----------------------------------------------------|
----------------------------------------------------|
----------------------------------------------------|
--------------3-----------3-----5-------------------|
--0--0--0--0--------0-----------------0-----0-------|


----------------------------|
----------------------------|
----------------------------|
--8--7--0--5-----7--3--0----|
--8--7--0--5-----7--3--0----|
--8--7--0--5-----7--3--0----|


----------------------------------------------------|
----------------------------------------------------|
----------------------------------------------------|
----------------------------------------------------|
--------------3-----------3-----5-------------------|
--0--0--0--0--------0-----------------0--0--0--0----|


----------------------------|
----------------------------|
----------------------------|
-----------------0--3--0----|
--3-----3--5-----0--3--0----|
-----0-----------0--3--0----|


----------------------------------------------------|
----------------------------------------------------|
----------------------------------------------------|
----------------------------------------------------|
--------------3-----------3-----5-------------------|
--0--0--0--0--------0-----------------0-----0-------|


----------------------------|----------------------------|
----------------------------|----------------------------|
--------------------7-------|----------------------------|
--8--7--0--5-----7----------|--0-------------------------|
--8--7--0--5-----7----------|--0-------------------------|
--8--7--0--5-----7----------|--0-----0--0--0--0--0--0----|


----------------------------------------------------|
----------------------------------------------------|
----------------------------------------------------|
--------7-----7-----7-------------------------------|
--------------------------8-----8-----7--8--7-------|
--0-------------------------------------------------|


----------------------------|----------------------------|
----------------------------|----------------------------|
----------------------------|----------------------------|
--8--8--8--8--8--8--8--8----|--5--5--5--5--3--5--3--0L---|
--8--8--8--8--8--8--8--8----|--5--5--5--5--3--5--3--0L---|
--8--8--8--8--8--8--8--8----|--5--5--5--5--3--5--3--0L---|


----------------------------|
----------------------------|
----------------------------|
--0-------------------------|
--0-------------------------|
--0--0--0--0--0--0--0--0----|


----------------------------------------------------|
----------------------------------------------------|
----------------------------------------------------|
--------7-----7-----7-------------------------------|
--------------------------8-----8-----7--8--7-------|
--0-------------------------------------------------|


----------------------------|----------------------------|
----------------------------|----------------------------|
----------------------------|----------------------------|
--8--8--8--8--8--8--8--8----|--5--5--5--5--3--5--3--0----|
--8--8--8--8--8--8--8--8----|--5--5--5--5--3--5--3--0----|
--8--8--8--8--8--8--8--8----|--5--5--5--5--3--5--3--0----|


----------------------------|
----------------------------|
----------------------------|
--0-------------------------|
--0-------------------------|
--0-----0--0--0--0--0--0----|


----------------------------------------------------|
----------------------------------------------------|
----------------------------------------------------|
--------7-----7-----7-------------------------------|
--------------------------8-----8-----7--8--7-------|
--0-------------------------------------------------|


----------------------------|----------------------------|
----------------------------|----------------------------|
----------------------------|----------------------------|
--8--8--8--8--8--8--8--8----|--5--5--5--5--3--5--3--0L---|
--8--8--8--8--8--8--8--8----|--5--5--5--5--3--5--3--0L---|
--8--8--8--8--8--8--8--8----|--5--5--5--5--3--5--3--0L---|


----------------------------|
----------------------------|
----------------------------|
--0-------------------------|
--0-------------------------|
--0--0--0--0--0--0--0--0----|


----------------------------------------------------|
----------------------------------------------------|
----------------------------------------------------|
--------7-----7-----7-------------------------------|
--------------------------8-----8-----7--8--7-------|
--0-------------------------------------------------|


----------------------------|----------------------------|
----------------------------|----------------------------|
----------------------------|----------------------------|
--8--8--8--8--8--8--8--8----|--5--5--5--5--3--5--3--0----|
--8--8--8--8--8--8--8--8----|--5--5--5--5--3--5--3--0----|
--8--8--8--8--8--8--8--8----|--5--5--5--5--3--5--3--0----|


----------------------------------------------------|
----------------------------------------------------|
----------------------------------------------------|
----------------------------------------------------|
--------------3-----------3-----5-------------------|
--0--0--0--0--------0-----------------0--0--0--0----|


----------------------------|
----------------------------|
----------------------------|
-----------------0--3--0----|
--3-----3--5-----0--3--0----|
-----0-----------0--3--0----|


----------------------------------------------------|
----------------------------------------------------|
----------------------------------------------------|
----------------------------------------------------|
--------------3-----------3-----5-------------------|
--0--0--0--0--------0-----------------0-----0-------|


----------------------------|
----------------------------|
----------------------------|
--8--7--0--5-----7--3--0----|
--8--7--0--5-----7--3--0----|
--8--7--0--5-----7--3--0----|


----------------------------------------------------|
----------------------------------------------------|
----------------------------------------------------|
----------------------------------------------------|
--------------3-----------3-----5-------------------|
--0--0--0--0--------0-----------------0--0--0--0----|


----------------------------|
----------------------------|
----------------------------|
-----------------0--3--0----|
--3-----3--5-----0--3--0----|
-----0-----------0--3--0----|


----------------------------------------------------|
----------------------------------------------------|
----------------------------------------------------|
----------------------------------------------------|
--------------3-----------3-----5-------------------|
--0--0--0--0--------0-----------------0-----0-------|


----------------------------|----------------------------|
----------------------------|----------------------------|
----------------------------|--5-----5-----5--5--5--5----|
--8--7--0--5-----7--3--0----|--5-----5-----5--5--5--5----|
--8--7--0--5-----7--3--0----|--3-----3-----3--3--3--3L---|
--8--7--0--5-----7--3--0----|----------------------------|


----------------------------|----------------------------|
----------------------------|----------------------------|
--5--5-----5--5--5--5--5----|--7-----7-----7--7--7--3L---|
--5--5-----5--5--5--5--5----|--7-----7-----7--7--7--3----|
--3--3-----3--3--3--3--3----|--5-----5-----5--5--5--1----|
----------------------------|----------------------------|


----------------------------|----------------------------|
----------------------------|----------------------------|
--3--3--3--------------5----|--5-----5-----5--5--5--5L---|
--3--3--3--5-----7--8--5----|--5-----5-----5--5--5--5L---|
--1--1--1--5-----7--8--3----|--3-----3-----3--3--3--3L---|
-----------5-----7--8-------|----------------------------|


----------------------------|----------------------------|
----------------------------|----------------------------|
--5--5-----5--5--5--5--5----|----------------------------|
--5--5-----5--5--5--5--5----|--8-----8-----8--8--8--3L---|
--3--3-----3--3--3--3--3----|--8-----8-----8--8--8--3L---|
----------------------------|--8-----8-----8--8--8--3L---|


----------------------------|----------------------------|
----------------------------|----------------------------|
----------------------------|--5-----5-----5--5--5--5----|
--3--3--5--3-----3--5-------|--5-----5-----5--5--5--5----|
--3--3--5--3-----3--5-------|--3-----3-----3--3--3--3L---|
--3--3--5--3-----3--5-------|----------------------------|


----------------------------|----------------------------|
----------------------------|----------------------------|
--5--5-----5--5--5--5--5----|--7-----7-----7--7--7--3L---|
--5--5-----5--5--5--5--5----|--7-----7-----7--7--7--3----|
--3--3-----3--3--3--3--3----|--5-----5-----5--5--5--1----|
----------------------------|----------------------------|


----------------------------|----------------------------|
----------------------------|----------------------------|
--3--3--3--------------5----|--5-----5-----5--5--5--5L---|
--3--3--3--5-----7--8--5----|--5-----5-----5--5--5--5L---|
--1--1--1--5-----7--8--3----|--3-----3-----3--3--3--3L---|
-----------5-----7--8-------|----------------------------|


----------------------------|----------------------------|
----------------------------|----------------------------|
--5--5-----5--5--5--5--5----|----------------------------|
--5--5-----5--5--5--5--5----|--8-----8-----8--8--8--3L---|
--3--3-----3--3--3--3--3----|--8-----8-----8--8--8--3L---|
----------------------------|--8-----8-----8--8--8--3L---|


----------------------------|
----------------------------|
----------------------------|
--3--3--5--3-----3--5--3----|
--3--3--5--3-----3--5--3----|
--3--3--5--3-----3--5--3----|


----------------------------------------------------|
----------------------------------------------------|
----------------------------------------------------|
----------------------------------------------------|
--------------3-----------3-----5-------------------|
--0--0--0--0--------0-----------------0--0--0--0----|


----------------------------|
----------------------------|
----------------------------|
-----------------0--3--0----|
--3-----3--5-----0--3--0----|
-----0-----------0--3--0----|


----------------------------------------------------|
----------------------------------------------------|
----------------------------------------------------|
----------------------------------------------------|
--------------3-----------3-----5-------------------|
--0--0--0--0--------0-----------------0-----0-------|


----------------------------|
----------------------------|
----------------------------|
--8--7--0--5-----7--3--0----|
--8--7--0--5-----7--3--0----|
--8--7--0--5-----7--3--0----|


----------------------------------------------------|
----------------------------------------------------|
----------------------------------------------------|
----------------------------------------------------|
--------------3-----------3-----5-------------------|
--0--0--0--0--------0-----------------0--0--0--0----|


----------------------------|
----------------------------|
----------------------------|
-----------------0--3--0----|
--3-----3--5-----0--3--0----|
-----0-----------0--3--0----|


----------------------------------------------------|
----------------------------------------------------|
----------------------------------------------------|
----------------------------------------------------|
--------------3-----------3-----5-------------------|
--0--0--0--0--------0-----------------0-----0-------|


----------------------------|----------------------------|
----------------------------|----------------------------|
----------------------------|----------------------------|
--8--7--0--5-----7--3--0----|--0-------------------------|
--8--7--0--5-----7--3--0----|--0-------------------------|
--8--7--0--5-----7--3--0----|--0-----0--0--0--0--0--0----|


----------------------------------------------------|
----------------------------------------------------|
----------------------------------------------------|
--------7-----7-----7-------------------------------|
--------------------------8-----8-----7--8--7-------|
--0-------------------------------------------------|


----------------------------|----------------------------|
----------------------------|----------------------------|
----------------------------|----------------------------|
--8--8--8--8--8--8--8--8----|--5--5--5--5--3--5--3--0L---|
--8--8--8--8--8--8--8--8----|--5--5--5--5--3--5--3--0L---|
--8--8--8--8--8--8--8--8----|--5--5--5--5--3--5--3--0L---|


----------------------------|
----------------------------|
----------------------------|
--0-------------------------|
--0-------------------------|
--0--0--0--0--0--0--0--0----|


----------------------------------------------------|
----------------------------------------------------|
----------------------------------------------------|
--------7-----7-----7-------------------------------|
--------------------------8-----8-----7--8--7-------|
--0-------------------------------------------------|


----------------------------|----------------------------|
----------------------------|----------------------------|
----------------------------|----------------------------|
--8--8--8--8--8--8--8--8----|--5--5--5--5--3--5--3--0----|
--8--8--8--8--8--8--8--8----|--5--5--5--5--3--5--3--0----|
--8--8--8--8--8--8--8--8----|--5--5--5--5--3--5--3--0----|


----------------------------|
----------------------------|
----------------------------|
--0-------------------------|
--0-------------------------|
--0-----0--0--0--0--0--0----|


----------------------------------------------------|
----------------------------------------------------|
----------------------------------------------------|
--------7-----7-----7-------------------------------|
--------------------------8-----8-----7--8--7-------|
--0-------------------------------------------------|


----------------------------|----------------------------|
----------------------------|----------------------------|
----------------------------|----------------------------|
--8--8--8--8--8--8--8--8----|--5--5--5--5--3--5--3--0L---|
--8--8--8--8--8--8--8--8----|--5--5--5--5--3--5--3--0L---|
--8--8--8--8--8--8--8--8----|--5--5--5--5--3--5--3--0L---|


----------------------------|
----------------------------|
----------------------------|
--0-------------------------|
--0-------------------------|
--0--0--0--0--0--0--0--0----|


----------------------------------------------------|
----------------------------------------------------|
----------------------------------------------------|
--------7-----7-----7-------------------------------|
--------------------------8-----8-----7--8--7-------|
--0-------------------------------------------------|


----------------------------|----------------------------|
----------------------------|----------------------------|
----------------------------|----------------------------|
--8--8--8--8--8--8--8--5L---|--5--5--5--5--3--5--3--0----|
--8--8--8--8--8--8--8--5L---|--5--5--5--5--3--5--3--0----|
--8--8--8--8--8--8--8--5L---|--5--5--5--5--3--5--3--0----|


----------------------------------------------------|
----------------------------------------------------|
----------------------------------------------------|
----------------------------------------------------|
--------------3-----------3-----5-------------------|
--0--0--0--0--------0-----------------0--0--0--0----|


----------------------------|
----------------------------|
----------------------------|
-----------------0--3--0----|
--3-----3--5-----0--3--0----|
-----0-----------0--3--0----|


----------------------------------------------------|
----------------------------------------------------|
----------------------------------------------------|
----------------------------------------------------|
--------------3-----------3-----5-------------------|
--0--0--0--0--------0-----------------0-----0-------|


----------------------------|
----------------------------|
----------------------------|
--8--7--0--5-----7--3--0----|
--8--7--0--5-----7--3--0----|
--8--7--0--5-----7--3--0----|


----------------------------------------------------|
----------------------------------------------------|
----------------------------------------------------|
----------------------------------------------------|
--------------3-----------3-----5-------------------|
--0--0--0--0--------0-----------------0--0--0--0----|


----------------------------|
----------------------------|
----------------------------|
-----------------0--3--0----|
--3-----3--5-----0--3--0----|
-----0-----------0--3--0----|


----------------------------------------------------|
----------------------------------------------------|
----------------------------------------------------|
----------------------------------------------------|
--------------3-----------3-----5-------------------|
--0--0--0--0--------0-----------------0-----0-------|


----------------------------|----------------------------|
----------------------------|----------------------------|
----------------------------|--5-----5-----5--5--5--5----|
--8--7--0--5-----7--3--0----|--5-----5-----5--5--5--5----|
--8--7--0--5-----7--3--0----|--3-----3-----3--3--3--3L---|
--8--7--0--5-----7--3--0----|----------------------------|


----------------------------|----------------------------|
----------------------------|----------------------------|
--5--5-----5--5--5--5--5----|--7-----7-----7--7--7--3L---|
--5--5-----5--5--5--5--5----|--7-----7-----7--7--7--3----|
--3--3-----3--3--3--3--3----|--5-----5-----5--5--5--1----|
----------------------------|----------------------------|


----------------------------|----------------------------|
----------------------------|----------------------------|
--3--3--3--------------5----|--5-----5-----5--5--5--5L---|
--3--3--3--5-----7--8--5----|--5-----5-----5--5--5--5L---|
--1--1--1--5-----7--8--3----|--3-----3-----3--3--3--3L---|
-----------5-----7--8-------|----------------------------|


----------------------------|----------------------------|
----------------------------|----------------------------|
--5--5-----5--5--5--5--5----|----------------------------|
--5--5-----5--5--5--5--5----|--8-----8-----8--8--8--3L---|
--3--3-----3--3--3--3--3----|--8-----8-----8--8--8--3L---|
----------------------------|--8-----8-----8--8--8--3L---|


----------------------------|----------------------------|
----------------------------|----------------------------|
----------------------------|--5-----5-----5--5--5--5----|
--3--3--5--3-----3--5-------|--5-----5-----5--5--5--5----|
--3--3--5--3-----3--5-------|--3-----3-----3--3--3--3L---|
--3--3--5--3-----3--5-------|----------------------------|


----------------------------|----------------------------|
----------------------------|----------------------------|
--5--5-----5--5--5--5--5----|--7-----7-----7--7--7--3L---|
--5--5-----5--5--5--5--5----|--7-----7-----7--7--7--3----|
--3--3-----3--3--3--3--3----|--5-----5-----5--5--5--1----|
----------------------------|----------------------------|


----------------------------|----------------------------|
----------------------------|----------------------------|
--3--3--3--------------5----|--5-----5-----5--5--5--5L---|
--3--3--3--5-----7--8--5----|--5-----5-----5--5--5--5L---|
--1--1--1--5-----7--8--3----|--3-----3-----3--3--3--3L---|
-----------5-----7--8-------|----------------------------|


----------------------------|----------------------------|
----------------------------|----------------------------|
--5--5-----5--5--5--5--5----|----------------------------|
--5--5-----5--5--5--5--5----|--8-----8-----8--8--8--3L---|
--3--3-----3--3--3--3--3----|--8-----8-----8--8--8--3L---|
----------------------------|--8-----8-----8--8--8--3L---|


----------------------------|
----------------------------|
----------------------------|
--3--3--5--3-----3--5--3----|
--3--3--5--3-----3--5--3----|
--3--3--5--3-----3--5--3----|


----------------------------------------------------|
----------------------------------------------------|
----------------------------------------------------|
----------------------------------------------------|
--------------3-----------3-----5-------------------|
--0--0--0--0--------0-----------------0--0--0--0----|


----------------------------|
----------------------------|
----------------------------|
-----------------0--3--0----|
--3-----3--5-----0--3--0----|
-----0-----------0--3--0----|


----------------------------------------------------|
----------------------------------------------------|
----------------------------------------------------|
----------------------------------------------------|
--------------3-----------3-----5-------------------|
--0--0--0--0--------0-----------------0-----0-------|


----------------------------|
----------------------------|
----------------------------|
--8--7--0--5-----7--3--0----|
--8--7--0--5-----7--3--0----|
--8--7--0--5-----7--3--0----|


----------------------------------------------------|
----------------------------------------------------|
----------------------------------------------------|
----------------------------------------------------|
--------------3-----------3-----5-------------------|
--0--0--0--0--------0-----------------0--0--0--0----|


----------------------------|
----------------------------|
----------------------------|
-----------------0--3--0----|
--3-----3--5-----0--3--0----|
-----0-----------0--3--0----|


----------------------------------------------------|
----------------------------------------------------|
----------------------------------------------------|
----------------------------------------------------|
--------------3-----------3-----5-------------------|
--0--0--0--0--------0-----------------0-----0-------|


----------------------------|----------------------------|
----------------------------|----------------------------|
----------------------------|--------12----12-14---------|
--8--7--0--5-----7--3--0----|----------------------------|
--8--7--0--5-----7--3--0----|----------------------------|
--8--7--0--5-----7--3--0----|----------------------------|


----------------------------|
----------------------------|
--12----12-14-------15-12L--|
----------------------------|
----------------------------|
----------------------------|


--------------------------------------------------------------------------------
--------------------------------------------------------------------------------
--12----------------------12----------------------12----------14----------------
--------------------------------------------------------------------------------
--------------------------------------------------------------------------------
--------------------------------------------------------------------------------


---------------13---|--15b---------13------------------------------------|
------------15------|--------------------15L---15------------------------|
---------14---------|----------------------------------------------------|
------15------------|----------------------------------------------------|
---17---------------|----------------------------------------------------|
--------------------|----------------------------------------------------|


----------------------------|----------------------------|
----------------------------|----------------------------|
--------12----12-14---------|--12----12-14-------15-12L--|
----------------------------|----------------------------|
----------------------------|----------------------------|
----------------------------|----------------------------|


----------------------------|
----------------------------|
--12----12----12-14---------|
----------------------------|
----------------------------|
----------------------------|


--17-15-13-12----------------------13---------------|
--------------15-13-------------------15L15---------|
--------------------15-14-12------------------------|
-----------------------------15-13------------------|
----------------------------------------------------|
----------------------------------------------------|


--------13----13-12---------|--13----13-12-------15-12L--|
----------------------------|----------------------------|
----------------------------|----------------------------|
----------------------------|----------------------------|
----------------------------|----------------------------|
----------------------------|----------------------------|


--12----13----13-12---------|
----------------------------|
----------------------------|
----------------------------|
----------------------------|
----------------------------|


-----------------13-17----15-13---------------------|
--------------15----------------15------------------|
-----------14---------------------------------------|
--------15------------------------------------------|
--12-17---------------------------------------------|
----------------------------------------------------|


--------13----13-12---------|--13----13-12-------15-12L--|
----------------------------|----------------------------|
----------------------------|----------------------------|
----------------------------|----------------------------|
----------------------------|----------------------------|
----------------------------|----------------------------|


--12----13----13-12---------|
----------------------------|
----------------------------|
----------------------------|
----------------------------|
----------------------------|


-----------------------------------------------17---|--18b--|
--------------------------------------17-18-19------|-------|
--15-12-14-15-17-14-15-17-19-15-17-19---------------|-------|
----------------------------------------------------|-------|
----------------------------------------------------|-------|
----------------------------------------------------|-------|


----------------------------------------------------|
----------------------------------------------------|
----------------------------------------------------|
----------------------------------------------------|
--------------3-----------3-----5-------------------|
--0--0--0--0--------0-----------------0--0--0--0----|


----------------------------|
----------------------------|
----------------------------|
-----------------0--3--0----|
--3-----3--5-----0--3--0----|
-----0-----------0--3--0----|


----------------------------------------------------|
----------------------------------------------------|
----------------------------------------------------|
----------------------------------------------------|
--------------3-----------3-----5-------------------|
--0--0--0--0--------0-----------------0-----0-------|


----------------------------|
----------------------------|
----------------------------|
--8--7--0--5-----7--3--0----|
--8--7--0--5-----7--3--0----|
--8--7--0--5-----7--3--0----|


----------------------------------------------------|
----------------------------------------------------|
----------------------------------------------------|
----------------------------------------------------|
--------------3-----------3-----5-------------------|
--0--0--0--0--------0-----------------0--0--0--0----|


----------------------------|
----------------------------|
----------------------------|
-----------------0--3--0----|
--3-----3--5-----0--3--0----|
-----0-----------0--3--0----|


----------------------------------------------------|
----------------------------------------------------|
----------------------------------------------------|
----------------------------------------------------|
--------------3-----------3-----5-------------------|
--0--0--0--0--------0-----------------0-----0-------|


----------------------------|----------------------------|
----------------------------|----------------------------|
----------------------------|--5-----5-----5--5--5--5----|
--8--7--0--5-----7--3--0----|--5-----5-----5--5--5--5----|
--8--7--0--5-----7--3--0----|--3-----3-----3--3--3--3L---|
--8--7--0--5-----7--3--0----|----------------------------|


----------------------------|----------------------------|
----------------------------|----------------------------|
--5--5-----5--5--5--5--5----|--7-----7-----7--7--7--3L---|
--5--5-----5--5--5--5--5----|--7-----7-----7--7--7--3----|
--3--3-----3--3--3--3--3----|--5-----5-----5--5--5--1----|
----------------------------|----------------------------|


----------------------------|----------------------------|
----------------------------|----------------------------|
--3--3--3--------------5----|--5-----5-----5--5--5--5L---|
--3--3--3--5-----7--8--5----|--5-----5-----5--5--5--5L---|
--1--1--1--5-----7--8--3----|--3-----3-----3--3--3--3L---|
-----------5-----7--8-------|----------------------------|


----------------------------|----------------------------|
----------------------------|----------------------------|
--5--5-----5--5--5--5--5----|----------------------------|
--5--5-----5--5--5--5--5----|--8-----8-----8--8--8--3L---|
--3--3-----3--3--3--3--3----|--8-----8-----8--8--8--3L---|
----------------------------|--8-----8-----8--8--8--3L---|


----------------------------|----------------------------|
----------------------------|----------------------------|
----------------------------|--5-----5-----5--5--5--5----|
--3--3--5--3-----3--5-------|--5-----5-----5--5--5--5----|
--3--3--5--3-----3--5-------|--3-----3-----3--3--3--3L---|
--3--3--5--3-----3--5-------|----------------------------|


----------------------------|----------------------------|
----------------------------|----------------------------|
--5--5-----5--5--5--5--5----|--7-----7-----7--7--7--3L---|
--5--5-----5--5--5--5--5----|--7-----7-----7--7--7--3----|
--3--3-----3--3--3--3--3----|--5-----5-----5--5--5--1----|
----------------------------|----------------------------|


----------------------------|----------------------------|
----------------------------|----------------------------|
--3--3--3--------------5----|--5-----5-----5--5--5--5L---|
--3--3--3--5-----7--8--5----|--5-----5-----5--5--5--5L---|
--1--1--1--5-----7--8--3----|--3-----3-----3--3--3--3L---|
-----------5-----7--8-------|----------------------------|


----------------------------|----------------------------|
----------------------------|----------------------------|
--5--5-----5--5--5--5--5----|----------------------------|
--5--5-----5--5--5--5--5----|--8-----8-----8--8--8--3L---|
--3--3-----3--3--3--3--3----|--8-----8-----8--8--8--3L---|
----------------------------|--8-----8-----8--8--8--3L---|


----------------------------|
----------------------------|
----------------------------|
--3--3--5--3-----3--5--3----|
--3--3--5--3-----3--5--3----|
--3--3--5--3-----3--5--3----|


----------------------------------------------------------------------------|
----------------------------------------------------------------------------|
----------------------------------------------------------------------------|
--5b----------------0--------------------0--0--0--0--0--0--0--0--0--0--0----|
--5b----------------0--------------------0--0--0--0--0--0--0--0--0--0--0----|
--5b----------------0--------------------0--0--0--0--0--0--0--0--0--0--0----|


----------------------------------------------------------------------------|
----------------------------------------------------------------------------|
----------------------------------------------------------------------------|
--5b----------------0--------------------0--0--0--0--0--0--0--0--0--0--0----|
--5b----------------0--------------------0--0--0--0--0--0--0--0--0--0--0----|
--5b----------------0--------------------0--0--0--0--0--0--0--0--0--0--0----|


----------------------------------------------------------------------------|
----------------------------------------------------------------------------|
----------------------------------------------------------------------------|
--5b----------------0--------------------0--0--0--0--0--0--0--0--0--0--0----|
--5b----------------0--------------------0--0--0--0--0--0--0--0--0--0--0----|
--5b----------------0--------------------0--0--0--0--0--0--0--0--0--0--0----|


----------------------------------------------------------------------------|
----------------------------------------------------------------------------|
----------------------------------------------------------------------------|
--5b----------------0--------------------0--0--0--0--0--0--0--0--0--0--0----|
--5b----------------0--------------------0--0--0--0--0--0--0--0--0--0--0----|
--5b----------------0--------------------0--0--0--0--0--0--0--0--0--0--0----|


-------||
-------||
-------||
--0----||
--0----||
--0----||
Добавлено: 01.06.2013
Другие материалы по этой песне:
  • Аккорды и текст

Страница создана 01.06.2013
http://primanota.ru/a-world-witout-weakness/everything-is-broken-chords.htm
Привет, Гость.
Предлагаем пройти революционный курс по гитаре.
Подарок от PrimaNota.Ru, забирай!