PrimaNota.ru - самый крупный в мире бесплатный архив песенных текстов, аккордов, табулатур и нот


A Wilhelm Scream - Jaws 3 People 0 - таба, видео

Регистрация Запомнить меня
Войти через:  Facebook Google Twitter Vk Yandex Mail.ru

A Wilhelm Scream - Jaws 3 People 0 - таба, видео

Печатать
Просмотров: 135
Уроки эстрадного вокала в Санкт-Петербурге
Jaws 3 People 0 - A Wilhelm Scream
Tabbed by Rhys, Iam_2d[at]hotmail[dot]com

Note:i know some of this may be wrong but it'll give you a rough jist enough to work it 
form there on out, Go easy this is my first tab.

Any Questions or if you wanna help me finish this off mail me

Tab By Rhys

p= pull off
h- hammer on
* Palm Mute
/ slide
x muted Strings
~ hold

Intro:

e---------------------|
b---------------------|
g---------------------|
d---------------------|
a-----2-2------2----2-|
e-0-2----0-0-0--------|

"lets get the f*** f***......"

e---------------------|
b---------------------|
g-8888-7777-666-555---|
d-9999-8888-777-666---| X3
a---------------------|
e---------------------|

  *
e------------------|
b------------------|
g------------------|
d-44---5555-7------|
a-2225-3333-5------|
e---02-------------|

Verse:
"Dont test the captains...."

  * **     *  * **             ** *     *
e------------------------------------------0000-------|
b------------------------------------------77550000---|
g-----2h4p2-2------7h9p7/6h7p6-----2h4p2-2-----7766---|
d--5-------5---5-----------------5------5-------------|
a-2-22--------2-22-------------22-2-------------------|
e-----------------------------------------------------|

 * **     *  * **             ** *     *
e-------------------------------------------------|
b-------------------------------------------------|
g-----2h4p2-2------7h9p7/6h7p6-----2h4p2-2--------|
d--5-------5---5-----------------5------5---------|
a-2-22--------2-22-------------22-2--------2-2-2--|
e-------------------------------------------------|

"And like a drunk spills boons on his varsity letter.."

e------------------------|---------------|
b------------------------|---------------|
g----x-------------------|---------------|
d-44-x-0h2h4p2p0--X4 then|---------------|
a-22-x-------------------|-5-4-2-4-5-4-2-|
e------------------------|---------------|

e------------------------|---------------------|
b------------------------|----------7-7--------|
g-------9/11\9-----------|----------0-0--------|
d-------x/x-\x---x4 then-|----------9-9--77----|
a-12-99-7/9-\7-----------|-5-4-2-4--7-7--55----|
e-10-77------------------|---------7-----------|

"when the rest of the shipwrecked long drowned in their graves.."

e------------------------------------|
b------------------------------------|
g------------------------------------|
d-444-7777----------777-777--4-2-2---|
a-222-5555-555-7777-555-444--2-0-4---|
e----------333-5555------------------|

"Please help, my party flew away with the ocean mist.."

e|-------------------------------------------------------------|
B|-------------------------------------------------------------|
G|-------------------------------------------------------------|
D|---0----0----0--0-0--0----0----0--0-0------------------------|
A|--2----4----5--5----5----4----2--2---------------------------|
E|-3--3/5--5/7--7--7-7--7\5--5\3--3--3-------------------------|

"But when the Night Rangers found me..."

e|--------------------------------------------------------0000---------|
B|------------------------------------------------------3-3333---------|
G|-----------------------------------------------------0--0000---------|
D|-444444-7p00-4p00-7p00-4~-444444-7p00-4p00-7p00-4~--2---2222---------|
A|-222222-------------------222222-------------------3----3333-2-2-----|
E|-------------------------------------------------------------0-0-----|

Verse 2

"A hero's humility is a foolish amenity... "


  * **     *  * **             ** *     *
e------------------------------------------0000-------|
b------------------------------------------77550000---|
g-----2h4p2-2------7h9p7/6h7p76----2h4p2-2-----7766---|
d--5-------5---5-----------------5------5-------------|
a-2-22--------2-22-------------22-2-------------------|
e-----------------------------------------------------|

 * **     *  * **             ** *     *
e-------------------------------------------------|
b-------------------------------------------------|
g-----2h4p2-2------7h9p7/6h7p6-----2h4p2-2--------|
d--5-------5---5-----------------5------5---------|
a-2-22--------2-22-------------22-2--------2-2-2--|
e-------------------------------------------------|

"Cause they were jumping off the backs of only sons...."
e------------------------|----------------|
b------------------------|----------------|
g----x-------------------|----------------|
d-44-x-0h2h4p2p0--X4 then|----------------|
a-22-x-------------------|-5-4-2-4-5-4-2-4|
e------------------------|----------------|

"Lets Get The F*** F***...."

e|------------|
B|------------|
G|------------|
D|-0-7-5-4----| Do this 8 times
A|------------|
E|------------|

e|--------------------------------------------------------|
B|-------------------88888--------------------------------|
G|-------------------99999--------------------------------|
D|---0-----4-----0---xxxxx---44-----557-------------------|
A|--2-2---2-2---2-2--77777---22-242-335-7-9---------------|
E|-3---3-0---0-3---3------------020-----5-7---------------|

(bass Guitar Run)

e|------------|
B|-14--14-----|
G|-15--15-----|
D|-x---x------|
A|-12--12-----|
E|------------|

Havent Done The Solo Yet

Outro
"Oh, when I saw them floating out to the river"

e|---------------------------------------------------------------------------|
B|---------------------------------------------------------------------------|
G|----------------------------------------------------------10-9-------10-9--|
D|------------------------------------------------------7-7-x--x---7-7-x--x--|
A|-9999999999999999-7777777777777777-5555555555555555-995-5-8--7-775-5-8--7--|
E|-7777777777777777-5555555555555555-3333333333333333-77---------99----------|

e|---------------------------------------------------------------------------|
B|---------------------------------------------------------------------------|
G|---------------------------------------------------------------------------|
D|---------------------------------------------------------------------------|
A|-9999999999999999-7777777777777777-5555555-9-2-----------------------------|
E|-7777777777777777-5555555555555555-3333333-7-0-----------------------------|

e|-------------------|
B|-------------------|
G|9bp7-7-9-7-9b-9b-9~| Do this Twice
D|----9--------------|
A|-------------------|
E|-------------------|

e|12bp10----10-12-10-12b-12b-12---------------------------------------------|
B|-------12-----------------------------------------------------------------|
G|-------------------------------8p7p0-7p6p0-6p5p0-5p4p0-4p3p0-3p2p0--------|
D|--------------------------------------------------------------------------|
A|-------------------------------------------------------------------2-3----|
E|-------------------------------------------------------------------0-1----|


THE END

as i said if want to help me finish it give me a mail
Добавлено: 16.04.2012
Другие материалы по этой песне:
  • Аккорды и текст

Страница создана 16.04.2012
http://primanota.ru/a-wilhelm-scream/jaws-3-people-0-chords.htm
Привет, Гость.
Предлагаем пройти революционный курс по гитаре.
Подарок от PrimaNota.Ru, забирай!