PrimaNota.ru - самый крупный в мире бесплатный архив песенных текстов, аккордов, табулатур и нот


A Wilhelm Scream - Brand New Me Same Shitty You - текст песни, таба, видео

Регистрация Запомнить меня
Войти через:  Facebook Google Twitter Vk Yandex Mail.ru

A Wilhelm Scream - Brand New Me Same Shitty You - текст песни, таба, видео

Печатать
Просмотров: 140
Artist: A Wilhelm Scream
Song: Brand New Me, Same Shitty You
01/16/2005
Contact: thestart_has_you@peoplepc.com

During some of the technical parts of this song,
both guitars play similar riffs on different octaves.
I may have only tabbed one of the guitars for the part,
but you can figure out the other one rather easily.

Tuning = DADGBe

Anything in parenthesis is palm muted, unless otherwise noted.
>>>>>>>>>>>>>>>>>>>>>>>>>>>>>>>>>>>>>>>>>>>>>>>>>>>>>>>>>>>>>>
(Riff #1)

Guitar A
e-------------------------------------|-------------|
B-----------------------13-------13---|-------------|
G---------------9---------------------|-------------|
D---(77777)--10---10-10----10-10------|---(77777)---|
A---(77777)---------------------------|---(77777)---|
D---(77777)------repeat 8 times-------|---(77777)---|

Guitar B
e--------------------------|
B--------------------------|
G---------------10----10---|
D---7-----7-----10----10---|
A---7-----7-----8-----8----|
D---7-----7----------------|

>>>>>>>>>>>>>>>>>>>>>>>>>>>>>>>>>>>>>>>>>>>>>>>>>>>>>>>>>>>>>>
(Riff #2)

e----repeat 8 times----|
B----------------------|
G----------------------|
D---(777)-10-10p9------|
A---(777)---------10---|
D---(777)--------------|

e-----------------------|
B-----------------------|
G-------------10--------|
D---(7)-------10[x24]---|
A---(7)[x32]--8---------|
D---(7)-----------------|

>>>>>>>>>>>>>>>>>>>>>>>>>>>>>>>>>>>>>>>>>>>>>>>>>>>>>>>>>>>>>>

e------------------------------|
B------------------------------|
G---101010101010101010101010---|
D---x-x-x-x-x-x-x-x-x-x-x-x----|
A---8-8-8-8-8-8-8-8-8-8-8-8----|
D------------------------------|

e-----------------------------------------------------------|
B-----------------------------------------------------------|
G----------------------------------7---------------7--------|
D---5-------7-------5------3-------7[x12]--3-------7[x12]---|
A---5[x12]--7[x24]--5[x6]--3[x12]--5-------3[x12]--5--------|
D---5-------7-------5------3---------------3----------------|

>>>>>>>>>>>>>>>>>>>>>>>>>>>>>>>>>>>>>>>>>>>>>>>>>>>>>>>>>>>>>>

The next part repeats Riffs #1 and #2.

>>>>>>>>>>>>>>>>>>>>>>>>>>>>>>>>>>>>>>>>>>>>>>>>>>>>>>>>>>>>>>

e--------------------|
B---repeat 4 times---|
G--------------------|
D---5-------3--------|
A---5[x12]--3[x12]---|
D---5-------3--------|

Guitar A
e---12p0--8p0--7p0--8p0--7p0--5p0--3p0---|
B----------------------------------------|
G----------------------------------------|
D------------repeat 14 times-------------|
A----------------------------------------|
D----------------------------------------|

Guitar B
e--------------------------------------------|
B--------------------------------------------|
G--------------------------------------------|
D---7---5---7-------5-------7-------5--------|
A---7---5---7[x24]--5[x24]--7[x24]--5[x24]---|
D---7---5---7-------5-------7-------5--------|

>>>>>>>>>>>>>>>>>>>>>>>>>>>>>>>>>>>>>>>>>>>>>>>>>>>>>>>>>>>>>>

For this part, both guitars palm mute lightly at first,
then open after several repetitions.

Guitar A
e----------repeat 8 times-----------|
B-----------------------------------|
G-------5---4---5---7---5---4h5p4---|
D---3-3---3---3---3---3---3---------|
A-----------------------------------|
D-----------------------------------|

Guitar B - starts after 2 repetitions of Guitar A
e--------------------------------------------------|
B--------------------------------------------------|
G---------------------------10---------------------|
D---10-10-14-10-12-10-14-10----10-14-10-12h14p12---|
A--------------------------------------------------|
D----------------repeat 6 times--------------------|

>>>>>>>>>>>>>>>>>>>>>>>>>>>>>>>>>>>>>>>>>>>>>>>>>>>>>>>>>>>>>>

e-----------------------------------------------|
B-----------------------------------------------|
G-----------------------------------------------|
D---(77777)-7-(77777)-77-(77777)-7-(77777)-77---|
A---(77777)-7-(77777)-77-(77777)-7-(77777)-77---|
D---(77777)-7-(77777)-77-(77777)-7-(77777)-77---|

e------------------------|-----------------------------|
B------------------------|-----------------------------|
G---9h10p9--7--9p7-------|------------10--9-7-9-7------|
D-------------------10---|---10-12-10-------------10---|
A------------------------|-----------------------------|
D------------------------|--------repeat 7 times-------|

>>>>>>>>>>>>>>>>>>>>>>>>>>>>>>>>>>>>>>>>>>>>>>>>>>>>>>>>>>>>>>
Добавлено: 03.04.2012
Другие материалы по этой песне:
  • Аккорды и текст

Страница создана 03.04.2012
http://primanota.ru/a-wilhelm-scream/brand-new-me-same-shitty-you-chords.htm
Привет, Гость.
Предлагаем пройти революционный курс по гитаре.
Подарок от PrimaNota.Ru, забирай!