PrimaNota.ru - самый крупный в мире бесплатный архив песенных текстов, аккордов, табулатур и нот


A Wilhelm Scream - Born A Wise Man - таба, видео

Регистрация Запомнить меня
Войти через:  Facebook Google Twitter Vk Yandex Mail.ru

A Wilhelm Scream - Born A Wise Man - таба, видео

Печатать
Просмотров: 205
Уроки эстрадного вокала в Санкт-Петербурге
-------------------------------------------------------------------------------
                             A WILHELM SCREAM - BORN A WISE MAN
-------------------------------------------------------------------------------
Tabbed by: Trolko

/   slide up
\   slide down
h   hammer-on
p   pull-off
~   vibrato
+   harmonic
x   Mute note
b   Bend
br  Bend release
PM  palm mute


Tuning: EBGDAD (DROP D)


 00:00
|------5----------5-----------|
|--------6~---------5~--------|
|----7-----------7------------|Gtr I
|--7---------5/7--------------|
|-----------------------------|
|-----------------------------|
|                             |
|-----------------------------|
|----------13-10-------13-----|
|-------10----------10----12--|Gtr II
|--8/12----------12-----------|
|-----------------------------|
|-----------------------------|


 00:10
|-----------------5--------------------|
|--6h8p6p5-6---------5-8p6p5-6---------|
|--------------------------------------|Gtr I
|------------7-----------------7-------|
|--------------------------------------|
|--------------------------------------|
|                                      |
|-------------------8------------------|
|--10h11p10p8-10-------8-11p10p8-10----|
|----------------7------------------7--|Gtr II
|--------------------------------------|
|--------------------------------------|
|--------------------------------------|


 00:17
|--5-5-5h6p5-----------------8-10-----------|
|------------6p5-----------8------10--------|
|----------------7-7/9-7/9------------------|Gtr I
|-------------------------------------------|
|-------------------------------------------|
|-------------------------------------------|
|                                           |
|--8-8-8h10p8---------------------12-13-10--|
|-------------10p8----------10-13-----------|
|------------------10-10/12-----------------|Gtr II
|-------------------------------------------|
|-------------------------------------------|
|-------------------------------------------|


 00:20
|-------------------------------------------------------|
|------------------10-----------------------10----------|
|----------9h10h12----10------------9h10h12----10-9-----|Gtr I
|--8h10h12------------------8h10h12-----------------12--|
|-------------------------------------------------------|
|-------------------------------------------------------|
|*You can also slide from 8 to 10 then hammer on 12     |
|------------------8-----------------------8------------|
|---------8h10h11----10------------8h10h11---10-8-------|
|--7h9h10-------------------7h9h10----------------10----|Gtr II
|-------------------------------------------------------|
|-------------------------------------------------------|
|-------------------------------------------------------|


 00:24
|---------------------------------------------------------------------------------|
|------------------10---------------------10h11h13-11h13h15-----------------------|
|----------9h10h12----10----------9h10h12--------------------10-10h12p10-9--------|Gtr I
|--8h10h12----------------8h10h12------------------------------------------12-----|
|-----------------------------------------------------------------------------12--|
|---------------------------------------------------------------------------------|
|                                                                                 |
|------------------8----------------------8h10h12-10-13---------------------------|
|----------8h10h11----10----------8h10h11----------------10-10h11p10--------------|
|--7h9h10-----------------7h9h10-------------------------------------12-10--------|Gtr II
|--------------------------------------------------------------------------12-----|
|---------------------------------------------------------------------------------|
|---------------------------------------------------------------------------------|


 00:27
|-----------------------------------------------|
|-----------------------------------------------|
|----------5-7---------9/10-12/14-12-10-10------|
|--(7)-5-0-5-7-7-8-5-0-x-x--x--x--x--x--10------|
|--(7)-5-0-3-5-7-8-5-0-7/8--10/12-10-8--8-------|
|--(7)-5-0-----7-8-5-0------------------8-------|


 00:33
|-------------------------------------|
|-------------------------------------|
|------5-7---------9/10-9-7-5-7-------|
|--5-0-5-7-7-8-5-0-x-x--x-x-x-x-------|
|--5-0-3-5-7-8-5-0-7/8--7-5-3-5-------|
|--5-0-----7-8-5-0--------------------|


 00:37
|----------------------1---------------|
|----------------------1---------------|
|--5---------7---------3-----------7---|
|--5---------7---------3---------3-7---|
|--3---------5---------1---------3-5---|
|--------------------------------3-----|


 00:42                                  some palm muting
|-------------------|---------------------------------------|
|-------------------|---------------------------------------|
|-------------------|----------------------------------10---|
|--8-7-5-7-8-7-5-7--|--12-10-x--10-12-10-x---x--x--8---10---|
|--5-5-5-5-5-5-5-5--|--8--8--12-8--8--8--12--12-10-8---8----|
|--5-5-5-5-5-5-5-5--|--8--8--8--8--8--8--8---8--8--8---8----|


 00:51
|-------------------|-------------------------------------------------|
|-------------------|-------------------------------------------------|
|-------------------|--------------------------------------------12---|
|--8-7-x-7-8-7-x-7--|--12-10-x--10-12-10-x---x----x----x----10---10---|
|--5-5-8-5-5-5-8-5--|--8--8--12-8--8--8--12--12---13---12---10---10---|
|--5-5-5-5-5-5-5-5--|--8--8--8--8--8--8--8---10---10---10---10---10---|


 1:01
|Part from  00:20|


 1:05
|-----------------------------------------------10----10-10h12p10--------------|
|------------------10------------------10-11-13----13-------------11-13-10-----|
|----------9h10h12----10----7h9h10-9-7-----------------------------------------|Gtr I
|--8h10h12---------------------------------------------------------------------|
|------------------------------------------------------------------------------|
|------------------------------------------------------------------------------|
|                                                                              |
|------------------8-----------------------------------12-13-13h15p13----12----|
|----------8h10h11----10----------------------------------------------15----13-|
|--7h9h10----------------------------------------14-15-------------------------|Gtr II
|------------------------------------------15-17-------------------------------|
|---------------------------13h15h17-15-13-------------------------------------|
|------------------------------------------------------------------------------|


 1:08                                                  some palm muting
|---------------------------------------------------------------8------|
|---------------------------------------------------------------8------|
|----------5-7---------5-7---------------5-------------10-------10-10--|
|--(7)-5-0-5-7-7-8-5-0-5-7-7-8-5\3-7-6-5-5-7-6-5-0-3/7-10-------10-8---|
|--(7)-5-0-3-5-7-8-5-0-3-5-7-8-5\3-7-6-5-3-7-6-5-0-3/7-8--------8--8---|
|--(7)-5-0-----7-8-5-0-----7-8-5\3-7-6-5---7-6-5-0-3/7-8--------8--8---|


 1:16 (guitar 2 plays riff from 00:42 & 00:51)
|-------------------------------------------------------------------------------------------|
|-------------------------------------------------------------------------------------------|
|--12------------12/14-10-------------------12/14~--12------------12/14-10-------------5----|
|--x-------------x--x--x-----------------10-x--x----x-------------x--x--x--------------5----|
|--10------------10/12-8-----------10/12----10/12~--10------------10/12-8--------------3----|
|-------------------------------------------------------------------------------------------|


 1:34
|-----------x-------------1---------|
|-----------3-------------1----6-4--|
|--x--------2-------------3----5-3--|
|--x------0-0-------------3----3-1--|
|--x------0-0-------------1----3-1--|
|--3b5r3--0-0------------------3-1--|


 1:38 
|part from  00:20|


 1:43 some palm muting
|---------------------------------------------------------------------------------------------|
|----------------------10---------------------------------------------------------------------|
|--7---9---10----12-------10-10h12p10p9-------10-------10-12-10-9-----------------------------|Gtr I
|----7---7----10----10------------------12------------------------12-10-----------------------|
|------------------------------------------12----12\10------------------12\10-8-10/12----7p0--|
|-------------------------------------------------------------------------------------11-7p0--|
|                                                                                             |
|---------------------------------------------------------------------------------------------|
|---------------------------------------------------------------------------------------------|
|--3-------5-------------------------------------------------------12-------13-------14-------|Gtr II
|--3-------5-------0-------2-------3-------0-------7-------8-------10-------11-------12-------|
|--1-------3-------0-------2-------3-------0-------7-------8-------10-------11-------12-------|
|------------------0-------2-------3-------0-------7-------8-------10-------11-------12-------|


 1:47
 ++++++++++++++++++++++++++++++++
|--------------------------------|
|--------------------------------|
|--------------------------------|
|--0--PM harmonics parts--x------|
|--0----------------------x------|
|--0----------------------x------|


 1:56                                
|----------------------------------------------|
|----------------------------------------------|
|------5-7---------9/10-12/14-12-10------------|
|--5-0-5-7-7-8-5-0-x-x--x--x--x--x-------------|
|--5-0-3-5-7-8-5-0-7/8--10/12-10-8-------------|
|--5-0-----7-8-5-0-----------------------------|


 2:01                                 2:06               
|----------------------1-------------|-------------0-1-----------------0-1------|
|----------------------1-------------|-------------3-1-----------------3-1------|
|--5---------7---------3---------5-7-|--10---------2-3------10---------2-3------|
|--5---------7---------3---------3-5-|--10---------0-3------10---------0-3------|
|--3---------5---------1---------3-5-|--8----------0-1------8----------0-1------|
|--------------------------------3-5-|--8----------0--------8----------0--------|


 2:15
|---------------x----1-----------|
|---------------3------3---------|
|--7-10---7-----2--------3-------|
|--7-10---7-5p0-0--1-------3-(1)-|
|--5-8----5-5p0-0--1-------------|
|--5-8----5-5p0-0--1-------------|


 2:23
|-------------------------------------------------------------------------------|
|----------------------------10------------10-10-11p10---------------13b15r13~--|
|---------10p9p7/9-10-7/9h10----10p9-------------------10p9---------------------|Gtr I
|--8h10p8----------------------------12---------------------10/12-10------------|
|---------------------------------------12--------------------------------------|
|-------------------------------------------------------------------------------|
|                                                                               |
|------------------------------8-----------8-8-10p8-----------------------------|
|---------10-8-------10-6h8/10---10\8p6--------------10p8-6h8------8b10~--------|
|--7h8p7-------10/12--------------------7---------------------------------------|Gtr II
|-------------------------------------------------------------------------------| 
|-------------------------------------------------------------------------------|
|-------------------------------------------------------------------------------|


 2:30 (Gtr II part sounds weird and is played differently on live versions)
|------16p13----13--------------------------------------------13-------|
|-(13)-------15----15-12-15-12----12----------------------------12-----|
|------------------------------13----13-10-13p10-(10)-10h13/16----13---|Gtr I
|-------------------------------------------------------------------15-|
|----------------------------------------------------------------------|
|----------------------------------------------------------------------|
|PM: _  _  _  _  _  _  _  _  _  _ _ _ _  _  _  _  _  _  _  _  _  _     |
|----------------------------------------------------------------------|
|----------------------------------------------------------------------|
|----12-12-12-10-10-10-13-13-13-8-8-8-12-12-12-10-10-10-13-13-13-8-----|Gtr II
|----x--x--x--x--x--x--x--x--x--x-x-x-x--x--x--x--x--x--x--x--x--x-----|
|----10-10-10-8--8--8--11-11-11-6-6-6-10-10-10-8--8--8--11-11-11-6-----|
|----------------------------------------------------------------------|


 2:32
|----------------------|
|----------------------|
|---------10p9p7-9-10--|Gtr I
|--8-10p8--------------|
|----------------------|
|----------------------|
|                      |
|----------------------|
|---------10-8----8-10-|
|--7-8p7-------10------|Gtr II
|----------------------| 
|----------------------|
|----------------------|


 2:34                 PM: _ _ _   _ _ _ _               _     _
|-------5------------------------------------------------------------------------|
|---5-6---6-5---------------------------------------------------6/8-6------------|
|-7-----------7---------7-7-7-7-5---------------7-5------------------------------|Gtr I
|---------------7---------0-0-0---8-8-8-7-5-7-8-----8-7---7-7--------------------|
|-------------------------------------------------------8-----8------------------|
|--------------------------------------------------------------------------------|
|                   PM: _  _  _  _    _ _                                        |
|---------8----------------------------------------------------------------------|
|----8-10---10-8-----------------------------------------------------------------|
|-10-------------10-7---10-10-10-10-9-7-7-7---------7-10-9-7--------------7/9-7--|Gtr II
|-------------------------------------------10-8-10----------10-7-10-10-7--------|
|--------------------------------------------------------------------------------|
|--------------------------------------------------------------------------------|


 2:38                                    some palm muting
|-------------------|------------------------------------------------|
|-------------------|-----------------------------------------10-----|
|-------------------|-----------------------------------------10-----|
|--8-7-5-7-8-7-5-7--|--12-10-x--10-12-10-x---x--x--8-------10----12~-|
|--5-5-5-5-5-5-5-5--|--8--8--12-8--8--8--12--12-10-8-10/12-----------|
|--5-5-5-5-5-5-5-5--|--8--8--8--8--8--8--8---8--8--8-----------------|


 2:48
|-------------------|---------------------------------|
|-------------------|----------------------------8-6--|
|-------------------|----------------------------7-5--|
|--8-7-x-7-8-7-x-7--|--12-10-x--10-12-10-x---10--5-3--|
|--5-5-8-5-5-5-8-5--|--8--8--12-8--8--8--12--10--5-3--|
|--5-5-5-5-5-5-5-5--|--8--8--8--8--8--8--8---10--5-3--|


 2:57
|part from 00:00|


 3:03 PM:_
|--------------------------------------------|
|-------(6)-5h6p5----------------------------|
|-----------------5h7p5-3h5p3\2-2h3p2p0------|Gtr I
|--------------------------------------------|
|--------------------------------------------|
|--------------------------------------------|
|                                            |
|-----------8h10p8h10-5h6p5\3-5p3\1-1h3p1p0--|
|--------------------------------------------|
|--------------------------------------------|Gtr II
|--------------------------------------------|
|--------------------------------------------|
|--------------------------------------------|


 3:04                    some palm muting here also          3:15
|------------|----------------------------------------------|--------------------|
|------------|---------------6-6-6-6-6-6-6-------6-6-6-6-6--|--------------------|
|----------5-|---------------7-7-7-7-7-7-7-10-10-7-7-7-7-7--|-----------5--------|
|--0-7-6-5-5-|-7-6-5-0-3-5-0-7-7-7-7-7-7-7-10-10-7-7-7-7-7--|-0-7-6-5-3-5-5-3-0--|
|--0-7-6-5-3-|-7-6-5-0-3-5-0-5-5-5-5-5-5-5-8--8--5-5-5-5-5--|-0-7-6-5-3-3-5-3-0--|
|--0-7-6-5---|-7-6-5-0-3-5-0---------------8--8-------------|-0-7-6-5-3---5-3-0--|

Note: Keep in mind that i didnt type every strum in most parts! So listen to the song! OFC

Melodies/solo are probably pretty damn accurate! 
As far as rhythm goes... Im not sure, but it sounds good to me.
The positioning is in a way that i thought would make it easier to play.

IF YOU HAVE ANY CORRECTIONS OR COMMENTS E-MAIL ME: TrolkoPasanac (gmail)


Добавлено: 06.08.2015
Другие материалы по этой песне:
  • Аккорды и текст

Страница создана 06.08.2015
http://primanota.ru/a-wilhelm-scream/born-a-wise-man-chords.htm
Привет, Гость.
Предлагаем пройти революционный курс по гитаре.
Подарок от PrimaNota.Ru, забирай!