PrimaNota.ru - самый крупный в мире бесплатный архив песенных текстов, аккордов, табулатур и нот


A Thorn For Every Heart - Streetcar - текст песни, таба, бас-таба, видео

Регистрация Запомнить меня
Войти через:  Facebook Google Twitter Vk Yandex Mail.ru

A Thorn For Every Heart - Streetcar - текст песни, таба, бас-таба, видео

Печатать
Просмотров: 245
Уроки эстрадного вокала в Санкт-Петербурге
-------------------------------------------------------------------------------
                Streetcar -  A Thorn For Every Heart
-------------------------------------------------------------------------------
Tabbed by: Drake Merritt
Email: drakemerr@hotmail.com

Rhythm Guitar: Drop D
Lead Guitar: Drop D

Lead Guitar (0:00) x3
e|---------------------------------------------------------------------------|
B|---------------------------------------------------------------------------|
G|---------------------------------------------------------------------------|
D|10----10-----10----12------12------12----8----8----8---8----8----8---------|
A|-8-88--8--88--8--8-10-1010-10-1010-10-10-6-66-6-66-6-6-6-66-6-66-6-6-------|
D|---------------------------------------------------------------------------|
   . ..  .  ..  .  .  .  . .  .  . .  .  . . .. . .. . . . .. . .. . .

Rhythym Guitar (0:06)
e|---------------------------------------------------------------------------|
B|-----3----3--------4----------------3----3--------4------------------------|
G|---5----5----------3--------------5----5----------3------------------------|
D|-------------------1------------------------------1------------------------|
A|-------------------1------------------------------1------------------------|
D|3-------------5----1-----------3-------------5----1------------------------|



Lead Guitar (0:20) x4
e|------8----------------8----8/10\8-----------------------------------------|
B|5-6--------------5-6------6------------------------------------------------|
G|---------------------------------------------------------------------------|
D|---------------------------------------------------------------------------|
A|---------------------------------------------------------------------------|
D|---------------------------------------------------------------------------|

Lead Guitar (0:43)
e|888-666-555---------------------------8------------8-----8/10\8------------|
B|------------888-566-566-566-566-5--6---------5--6------6-------------------|
G|---------------------------------------------------------------------------|
D|---------------------------------------------------------------------------|
A|---------------------------------------------------------------------------|
D|---------------------------------------------------------------------------|

Rhythym Guitar (0:20) x3
e|---------------------------------------------------------------------------|
B|---------------------------------------------------------------------------|
G|---------------------------------------------------------------------------|
D|8888888888888888777777777777777700000000000000000000000000000000-----------|
A|8888888888888888777777777777777700000000000000000000000000000000-----------|
D|8888888888888888777777777777777700000000000000000000000000000000-----------|



Rhythym Guitar (0:53)
e|---------------------------------------------------------------------------|
B|---------------------------------------------------------------------------|
G|-----------------------------------5~--------------------------------------|
D|0~---------------------------------0~--------------------------------------|
A|0~---------------------------------0~--------------------------------------|
D|0~---------------------------------0~--------------------------------------|



Lead Guitar (1:05) x6
e|---------------------------------------------------------------------------|
B|8-8-10-8-10-8-------10----10--------10---10--------------------------------|
G|--------------10-10----10----10-9-9----9----9------------------------------|
D|----------------------------------------------7-7-7-7-7-7------------------|
A|---------------------------------------------------------------------------|
D|---------------------------------------------------------------------------|
  . .  . .  . .  .  .  .  .  .  . . .  . .  . . . . . . . .

Rhythym Guitar (1:13) x4
e|---------------------------------------------------------------------------|
B|---------------------------------------------------------------------------|
G|12-12-12\10-10-10\9-9-9----------------------------------------------------|
D|-x--x--x--x--x--x-x-x-x-7-7-7----------------------------------------------|
A|10-10-10--8--8--8-7-7-7-x-x-x----------------------------------------------|
D|------------------------7-7-7----------------------------------------------|



Lead Guitar (1:32) x4
e|------8----------------8----8/10\8-----------------------------------------|
B|5-6--------------5-6------6------------------------------------------------|
G|---------------------------------------------------------------------------|
D|---------------------------------------------------------------------------|
A|---------------------------------------------------------------------------|
D|---------------------------------------------------------------------------|

Lead Guitar (1:53)
e|888-666-555---------------------------8------------8-----8/10\8------------|
B|------------888-566-566-566-566-5--6---------5--6------6-------------------|
G|---------------------------------------------------------------------------|
D|---------------------------------------------------------------------------|
A|---------------------------------------------------------------------------|
D|---------------------------------------------------------------------------|

Rhythym Guitar (1:32) x3
e|---------------------------------------------------------------------------|
B|---------------------------------------------------------------------------|
G|---------------------------------------------------------------------------|
D|8888888888888888777777777777777700000000000000000000000000000000-----------|
A|8888888888888888777777777777777700000000000000000000000000000000-----------|
D|8888888888888888777777777777777700000000000000000000000000000000-----------|



Lead Guitar (2:05)
e|---------------------------------------------------------------------------|
B|---------------------------------------------------------------------------|
G|15151515151515151515151515151515-141414141414-12--12--10-------------------|
D|-x-x-x-x-x-x-x-x-x-x-x-x-x-x-x-x--x-x-x-x-x-x--x---x---x-------------------|
A|13131313131313131313131313131313-121212121212-10--10---8-------------------|
D|---------------------------------------------------------------------------|

Rhythym Guitar (2:05)
e|---------------------------------------------------------------------------|
B|---------------------------------------------------------------------------|
G|---------------------------------------------------7---7---7---7---7-------|
D|8888888888888888--7--7--5--5--2/3\2----------------7---7---7---7---7-------|
A|0000000000000000--0--0--0--0--0--------------------5---5---5---5---5-------|
D|0000000000000000--0--0--0--0--0--------------------------------------------|



Lead Guitar (2:13)
e|17----15-14-12------17------------------17----15-14-12------17---19-21-----|
B|---------------------------15--17------------------------------------------|
G|-----------------------------------14--------------------------------------|
D|---------------------------------------------------------------------------|
A|---------------------------------------------------------------------------|
D|---------------------------------------------------------------------------|

Rhythym Guitar(2:13) x3.5 (3.5 means only play 11.9 power chord the last time)
e|---------------------------------------------------------------------------|
B|---------------------------------------------------------------------------|
G|--------------------------7---7---7---7---7-7------------------------------|
D|11---11---11---11---11-11-7---7---7---7---7-7------------------------------|
A|-9----9----9----9----9--9-5---5---5---5---5-5------------------------------|
D|---------------------------------------------------------------------------|



Lead Guitar (2:33) x4
e|---------------------------------------------------------------------------|
B|10/12\10--10---7/8\7--7----------------------------------------------------|
G|---------------------------4--4-4------------------------------------------|
D|---------------------------x--x-x-5-5-5------------------------------------|
A|---------------------------2--2-4-x-x-x------------------------------------|
D|----------------------------------5-5-5------------------------------------|

Rhythym Guitar (2:33) x4
e|---------------------------------------------------------------------------|
B|---------------------------------------------------------------------------|
G|7777-----------------------------------------------------------------------|
D|7777--7777--9-99-9-5-5-5---------------------------------------------------|
A|5555--7777--9-99-9-5-5-5---------------------------------------------------|
D|------7777--9-99-9-5-5-5---------------------------------------------------|



Both Guitars (2:49)
e|---------------------------------------------------------------------------|
B|---------------------------------------------------------------------------|
G|---------------------------------------------------------------------------|
D|0~-------------------------------------------------------------------------|
A|0~-------------------------------------------------------------------------|
D|0~-------------------------------------------------------------------------|

| /  slide up
| \  slide down
| h  hammer-on
| p  pull-off
| ~  vibrato
| +  harmonic
| x  Mute note
| .  Palm Mute
===============================================================================
Добавлено: 01.06.2012
Другие материалы по этой песне:
  • Аккорды и текст

Страница создана 19.03.2012
http://primanota.ru/a-thorn-for-every-heart/streetcar-chords.htm
Привет, Гость.
Предлагаем пройти революционный курс по гитаре.
Подарок от PrimaNota.Ru, забирай!