PrimaNota.ru - самый крупный в мире бесплатный архив песенных текстов, аккордов, табулатур и нот


A Static Lullaby - Nightmares Win 6-0 - текст песни, таба, бас-таба, видео

Регистрация Запомнить меня
Войти через:  Facebook Google Twitter Vk Yandex Mail.ru

A Static Lullaby - Nightmares Win 6-0 - текст песни, таба, бас-таба, видео

Печатать
Просмотров: 169
I've tried to get this as accurate as possible including strum patterns,
however the strumming pattern changes at the end of the second time around
on both verses, you should be able to work it out for yourself if you're not
picking up a guitar for the first time :P
Drop D.


|-------------------0~----------------0~----------------|
|-0~----------------0~----------------0~----------------|
|-0~----------------0~----------------0~--*----------*--|
|-0~----------------0~--*----------*--0~-(*Pick slide*)-|
|-0~--*----------*-----(*Pick slide*)-0~----------------|
|----(*Pick slide*)-------------------------------------|

This nightmare ends as the coccoon fills with oil...
(On the rocks father spills memories...)
|--------------------------------------------------------------|
|--------------------------------------------------------------|
|-10101010101010101010--9999999999--55555--77777--55555--77777-|
|--x-x-x-x--x-x--x------xxxxxxxxxx--xxxxx--xxxxx--xxxxx--xxxxx-|
|--8-8-8-8-8-8-8-8-8-8--7777777777--33333--55555--33333--55555-|
|--------------------------------------------------------------|
Fossils become waste upon cemented wings...
(Of mothers eyes...)
|----------------------------------------------------------------------|
|----------------------------------------------------------------------|
|-10101010101010101010--9999999999--1212121212121212--1010101010--9999-|
|--x-x-x-x-x-x-x-x-x-x--xxxxxxxxxx---x-x-x-x-x-x-x-x---x-x-x-x-x--xxxx-|
|--8-8-8-8-8-8-8-8-8-8--7777777777--1010101010101010---8-8-8-8-8--7777-|
|----------------------------------------------------------------------|
[x2]

A kiss turns to brandy, a dagger learns to cut hair.
Lipstick stains her addictions as the crescent moon turns clouds to frowns.
|-----------------------------|
|-----------------------------|
|-9h10p9h10p9h10p9h10-12p10p9-| (x28)
|-----------------------------|
|-----------------------------|
|-----------------------------|
(Clouds to frowns, help me, help me, help me, listen to it break me and I'm dying, I 
This isn't the time, this is the time...)
|-------------------------------------------------------------------------------|
|-------------------------------------------------------------------------------|
|-55------55------55------55------7777-------7777--------7777--------7777-------|
|-55--00--55--00--55--00--55--00--7777-0000--7777--0000--7777--0000--7777--0000-|
|-33--00--33--00--33--00--33--00--5555-0000--5555--0000--5555--0000--5555--0000-|
|-----00------00------00------00-------0000--------0000--------0000--------0000-|

Watch the sea swallow and forget...
(Venom engulfs the most precious fairytales)
|--------------------------------------------------------------|
|--------------------------------------------------------------|
|-10101010101010101010--9999999999--55555--77777--55555--77777-|
|--x-x-x-x--x-x--x-x-x--xxxxxxxxxx--xxxxx--xxxxx--xxxxx--xxxxx-|
|--8-8-8-8-8-8-8-8-8-8--7777777777--33333--55555--33333--55555-|
|--------------------------------------------------------------|
I've given up ambition for eight legs...
(While goldilocks forgets the bite for prince charming)
|----------------------------------------------------------------------|
|----------------------------------------------------------------------|
|-10101010101010101010--9999999999--1212121212121212--1010101010--9999-|
|--x-x-x-x-x-x-x-x-x-x--xxxxxxxxxx---x-x-x-x-x-x-x-x---x-x-x-x-x--xxxx-|
|--8-8-8-8-8-8-8-8-8-8--7777777777--1010101010101010---8-8-8-8-8--7777-|
|----------------------------------------------------------------------|
[x2]

Each window breathes smokes and pavement paces while cigarettes burn.
A tribal affair rises the masses from the broken hearts left at
|-----------------------------|
|-----------------------------|
|-9h10p9h10p9h10p9h10-12p10p9-| (x28)
|-----------------------------|
|-----------------------------|
|-----------------------------|
her door... At her door, at her door, at her door.
|--------------------------|
|--------------------------|
|-5------5------5------5~\-|
|-5--00--5--00--5--00--5~\-|
|-3--00--3--00--3--00--3~\-|
|----00-----00-----00------|


Legend:

~ - Let ring
* - Allocated pick slide strings
x - Mute note
p - Pull off
h - Hammer on
\ - Slide down
Добавлено: 24.03.2012
Другие материалы по этой песне:

Страница создана 14.03.2012
http://primanota.ru/a-static-lullaby/nightmares-win-6-0-chords.htm
Привет, Гость.
Предлагаем пройти революционный курс по гитаре.
Подарок от PrimaNota.Ru, забирай!