PrimaNota.ru - самый крупный в мире бесплатный архив песенных текстов, аккордов, табулатур и нот


A Static Lullaby - Everybodys Got A Lil Fonz N Em - таба, видео

Регистрация Запомнить меня
Войти через:  Facebook Google Twitter Vk Yandex Mail.ru

A Static Lullaby - Everybodys Got A Lil Fonz N Em - таба, видео

Печатать
Просмотров: 204
Уроки эстрадного вокала в Санкт-Петербурге
Best song by A Static Lullaby.
Its NOT perfect, but it's practically how you play the song.
great song...

[Intro / Verses]
e|--------------------------------------------------|
B|--------------------------------------------------|
G|--------------------------------------------------|
D|--------------------------------------------------|
A|--------------------------------------------------|
D|--0-0-15-0-0-15-0-0-15-0-15-14-15-14-0------------|
[Continued]
e|--------------------------------------------------|
B|--------------------------------------------------|
G|--------------------------------------------------|
D|--------------------------------------------------|
A|--------------------------------------------------|
D|--0-15-17-0-15-17-0-15-17---15--14-13-------------|

[Pre-Chorus / Bridge]x4
e|--------------------|--------------------------------|
B|--------------------|--------------------------------|
G|--------------------|--------------------------------|
D|--------------------|--------------------------------|
A|----3h0p------------|----6h0p------------------------|
D|--2------1h0p--0----|--5------4h0p-------------------|


[Chorus]
e|--------------------------------------------------------------|
B|--------------------------------------------------------------|
G|--------------------------------------------33333333----------|
D|--555555555-88888888-1111111111--333333333--33333333--444444--|
A|--555555555-88888888-1111111111--333333333--00000000--444444--|
D|--555555555-88888888-1111111111--333333333------------444444--|
[Chorus Continued]
e|--------------------------------------------------------------|
B|--------------------------------------------------------------|
G|--------------------------------------------------------------|
D|--55555555555555-1111111111111-333333333333-------------------|
A|--55555555555555-1111111111111-333333333333-55555555555-------|
D|--55555555555555-1111111111111-333333333333-44444444444-------|
[End of Chorus]
e|--------------------------------------------------------------|
B|--------------------------------------------------------------|
G|--------------------------------------------------------------|
D|--5-5---------4-4---------------------------------------------|
A|------6-6-5-5-----5-5-4-4-------------------------------------|
D|--------------------------2-----------------------------------|

Intro / Verse 2x
Pre-Chorus 2x
Entire Chorus 1x

[Breakdown]
e|--------------------------------------------------------------|
B|--------------------------------------------------------------|
G|--------------------------------------------------------------|
D|--0~-xxxxxx-0~-xxxxxx-0--0-xxxxxx--0--xxxxxxx--0--0--xxxxxx---|
A|--0~-xxxxxx-0~-xxxxxx-0--0-xxxxxx--0--xxxxxxx--0--0--xxxxxx---|
D|--0~-xxxxxx-0~-xxxxxx-0--0-xxxxxx--0--xxxxxxx--0--0--xxxxxx---|

Pre-Chorus 3x,

Chorus,

Intro / Verse

Outro
e|------------------------------------------------------|
B|------------------------------------------------------|
G|------------------------------------------------------|
D|----------------------------------------10---12-------|
A|----------------------------------------10---12-------|
D|--0-0-15-0-15-0-15-0-15-0-15-0-15-0-15--10---12-------|
Добавлено: 24.02.2012
Другие материалы по этой песне:
  • Аккорды и текст

Страница создана 24.02.2012
http://primanota.ru/a-static-lullaby/everybodys-got-a-lil-fonz-n-em-chords.htm
Привет, Гость.
Предлагаем пройти революционный курс по гитаре.
Подарок от PrimaNota.Ru, забирай!