PrimaNota.ru - самый крупный в мире бесплатный архив песенных текстов, аккордов, табулатур и нот


A Skylit Drive - She Watched The Sky - бас-таба, видео

Регистрация Запомнить меня
Войти через:  Facebook Google Twitter Vk Yandex Mail.ru

A Skylit Drive - She Watched The Sky - бас-таба, видео

Печатать
Просмотров: 116
+++++++++++++++++++++++++++++++++++++++
| A Skylit Drive- She Watched The Sky |
+++++++++++++++++++++++++++++++++++++++

Bass Tab, Album: "She Watched The Sky" -- 2007
All tabs by: RaiLeff
E-Mail: Underground__Dora@Hotmail.Com

These guys rock!
And here's their first album with awesome songs
on bass 
Disfruten!


Tuning: Drop D (DADG) and EADG

Tracks:

1. Ability To Create A War
2. Drown The City
3. The All Star Diaries
4. Hey Nightmare, Where Did You Get Them Teeth?
5. The Past, The Love, The Memories
6. A Reason For Broken Wings
7. According To Colombus

_________________________________________________

1. Ability To Create A War

Tuning: Drop D (DADG)

Intro
1.
G|-------|
D|-------|
A|-1~-1~-|
D|-------|

"Save Me!!!"
2.
G|------------------------------------------|
D|------------------------------------------|
A|---------------------------------1~-1~----|--x2
D|-000x--00-0000000-0x--000-0x--00----------|

"Im lost in the mind of a moster..."
3.
G|---------------------------------------------------|
D|---------------------------------------------------|
A|--------------------------------------------1~--1~-|--x2
D|-000-000-0-0-0-000-000-0-0-0-000-000-0-0-0-0---0---|

"Save Me!!!"
4.
G|---------------------------------------|
D|---------------------------------------|
A|--------------------------------1~--1~-|--x2
D|-000x--00-000000000x--000x--00-0---0---|

5.
G|----------------------------------------------------|
D|----------------------------------------------------|
A|----------------------------------------------------|
D|-0~-------------------------------------------------|

Lyrics:

The sky parts and my prayers fall before me
Will faith be the question
Or with the question test my faith
Save me
I am lost in the mind of a monster
Save me

________________________________________________________

2. Drown The City

Tuning: Drop D (DADG)

Intro
"Lie to me..." 
1.
G|----------------------------------------------------------------|
D|----------------------------------------------------------------|
A|-----------------1111x--111-333------------------1111x--111-333-|
D|-0000x--000-000------------------0000x--000-000-----------------|

Verse
"Forget it all..."
2.
G|-------------------------------------------|
D|-0~----------------------------------------|
A|-----------1~------------------1~----3~----|
D|---------------------0~--------------------|

Pre-Chorus
"The place you lay..."
3.
G|-------------------------------------------------------------------------------------|
D|-------------------------------------------------------------------------------------|
A|-------1~----------1~-3~-------1~----------1~-3~-1-1-1-1--1-1-1-1--3-3-3-3--3-3-3-3--|--x2
D|-00000-------00000-------00000-------00000-------------------------------------------|

Chorus
"So now you're screaming at the top of your lungs..."
4.
G|------------------------------------------------------------------------------|
D|----------------------------------------------------------------5\3-3\2-2/3-3-|
A|-------------------11111111-11111111-------------------33333333---------------|--x2
D|-00000000-00000000-------------------33333333-33333333------------------------|

Outro
"I wont lie!" 
5.
G|-------------------------------------|
D|-------------------------------------|
A|-------------------------------------|
D|-00~----00~--------00~----00~--------|

"I wont lie!"
6.
G|-------------------------------------------------------------------------|
D|----3~---------------7\5-5\3-3\2-2/3---------------------7\5-5\3-3\2-2/3-|
A|----------------------------------------3~-------------------------------|
D|-00-------00~------------------------00-------00~------------------------|

Interlude
7.
G|-------------------------------------|
D|-------------------------------------|
A|-11111111-11111111-33333333-33333333-|
D|-------------------------------------|

Verse
"The place you lay..."
8.
G|-------------------------------------------------------------------------------------|
D|-------------------------------------------------------------------------------------|
A|-------1~----------1~-3~-------1~----------1~-3~-1-1-1-1--1-1-1-1--3-3-3-3--3-3-3-3--|--x2
D|-00000-------00000-------00000-------00000-------------------------------------------|

Chorus
"So now you're screaming at the top of your lungs..."
9.
G|------------------------------------------------------------------------------|
D|----------------------------------------------------------------5\3-3\2-2/3-3-|
A|-------------------11111111-11111111-------------------33333333---------------|--x2
D|-00000000-00000000-------------------33333333-33333333------------------------|

Outro
"I wont lie!" 
10.
G|-------------------------------------|
D|-------------------------------------|
A|-------------------------------------|
D|-00~----00~--------00~----00~--------|

"I wont lie!"
11.
G|-------------------------------------------------------------------------|
D|----3~---------------7\5-5\3-3\2-2/3---------------------7\5-5\3-3\2-2/3-|
A|----------------------------------------3~-------------------------------|
D|-00-------00~------------------------00-------00~------------------------|

Interlude
12.
G|-------------------------------------|
D|-------------------------------------|
A|-11111111-11111111-33333333-33333333-|
D|-------------------------------------|

Chorus
"So now you're screaming at the top of your lungs..."
13.
G|------------------------------------------------------------------------------|
D|----------------------------------------------------------------5\3-3\2-2/3-3-|
A|-------------------11111111-11111111-------------------33333333---------------|--x2
D|-00000000-00000000-------------------33333333-33333333------------------------|

"So now you're screaming at the top of your lungs..."
14.
G|------------------------------------------------------------------------------|
D|----------------------------------------------------------------5\3-3\2-2/3-3-|
A|-------------------11111111-11111111-------------------33333333---------------|
D|-------------------------------------33333333-33333333------------------------|

"To inflict all the pain..."
15.
G|------------------------------------------------------------------------------|
D|----------------------------------------------------------------5\3-3\2-2/3-3-|
A|-------------------11111111-11111111-------------------33333333---------------|
D|-00000000-00000000-------------------33333333-33333333------------------------|

Outro
16.
G|---------------------------------------|
D|-------333-------333-------333---------|
A|-------------------------------1-1-3-3-|--x3
D|-00~-------00~-------00~---------------|

17.
G|-----------------------------------------------|
D|-------333-------333-------333-----------------|
A|-------------------------------1-1-3-3-1-1-3-3-|
D|-00~-------00~-------00~-----------------------|

18.
G|-------------------------------------------|
D|-------------------------------------------|
A|-----------1~------------------1~----3~----|
D|-0~------------------0~--------------------|

19.
G|-------------------------------------------------|
D|-------------------------------------------------|
A|-----------1~------------------1~----3~----------|
D|-0~------------------0~--------------------0~----|

Lyrics:

Lie to me
I wont lie
Tape your mouth shut
Lie to me
I wont lie
Swallow your tongue

Forget it all I have you buried in my walls
I
Добавлено: 17.02.2014
Вам также может быть интересно:
Другие материалы по этой песне:
  • Аккорды и текст

Страница создана 17.02.2014
http://primanota.ru/a-skylit-drive/she-watched-the-sky-chords.htm
Привет, Гость.
Предлагаем пройти революционный курс по гитаре.
Подарок от PrimaNota.Ru, забирай!