PrimaNota.ru - самый крупный в мире бесплатный архив песенных текстов, аккордов, табулатур и нот


A Skylit Drive - Prelude To A Dream - текст песни, таба, видео

Регистрация Запомнить меня
Войти через:  Facebook Google Twitter Vk Yandex Mail.ru

A Skylit Drive - Prelude To A Dream - текст песни, таба, видео

Печатать
Просмотров: 180
Tabbed by Francis J.Q.S.(SHC-BSN'10)
#-09283150081

pls rate/comment!!!...:)

Tuning ( eb bb gb C# G# C#)
Intro-
(keyboard)
|-------------------------------------------------------------------------|
|-------------------------------------------------------------------------|
|-------------------------------------------------------------------------|
|-------------------------------------------------------------------------|
|------------((1))~------((3))~----------------((1))~-------((3))~--------|
|-((0))~------------------------------((0))~------------------------------|

Verse-Stand up...this is a fucking Ovation...
|-------------------------------------13/18\17---------------------|
|----------------------------------------------18/15---------------|
|------------------------------------------------------------------|
|------------------------------------------------------------------|2x
|-0-00-00-0-0-0000-00-00--0-00-00-0-0-----------------0-00---------|
|-0-00-00-0-0-0000-00-00--0-00-00-0-0-----------------0-00---------|
  * ** ** * * **** ** **  * ** ** * *                 * ** 
|-----------------------------------------------------------------------------|
|-----------------------------------------------------------------------------|
|-----------------------------------------------------------------------------|
|-----------------------------------------------------------------------------|
|-00-00-00-00000000000000000000000000000000000000000000000000000000000000-----|
|-00-00-00-00000000000000000000000000000000000000000000000000000000000000-----|
  ** ** ** ***********************************************

-------------------------|
-------------------------|
-------------------------|
--------------33----22---|
-1-1-1-----00----00---00-|
-------000---------------|

Chorus-
|--------------------------------------------------------------------------------|
|--------------------------------------------------------------------------------|
|--------------------------------------------------------------------------------|2x
|-0-0-0-0-0-0-0-0-10-10-10-10-10-10-10-8-8-8-8-8-8-8-8-10-10-10-10-10-10-10-10---|
|-0-0-0-0-0-0-0-0-10-10-10-10-10-10-10-8-8-8-8-8-8-8-8-10-10-10-10-10-10-10-10---|
|-0-0-0-0-0-0-0-0-10-10-10-10-10-10-10-8-8-8-8-8-8-8-8-10-10-10-10-10-10-10-10---|


Verse-
|-------------------------------------------------------------------------|
|-------------------------------------------------------------------------|
|-------------------------------------------------------------------------|
|-0~---------0~------------------------0~---------0~----------------------|
|-0~---------0~--------00000000--------0~---------0~------------00000000--|
|-0~---------0~--------00000000--------0~---------0~------------00000000--|
                       ********                                 ********


|------------------------------------------------------------------------|
|------------------------------------------------------------------------|
|-------------------------------------------------9-10-9---------9-10----|
|----------12-10------------12-10-----------------------10-----------10--|
|-12-10-12----------12-10-12-------00000000--12-10----------12-10--------|
|----------------------------------00000000------------------------------|
  *  *  *  *   *     * *  * *   *  ********  *   * * * * *  *  * *  * * 


|-------------------------------------------------------------------------|
|-------------------------------------------------------------------------|
|-------------------------------------------------------------------------|
|----------0~--------0~---------------------------------------------------|
|-00000000-0~---0-0--0~---8/10-8-~---8-7~---------------------------------|
|-00000000-0~---0-0--0~---------------------------------------------------|
  ********      * *    


Verse-
|--------12-13-12-----------12--------10--------10--------|
|-13-10-----------13-----13-----13--------13-------13-----|
|---------------------10-----------10--------10-----------|7x
|---------------------------------------------------------|
|---------------------------------------------------------|
|---------------------------------------------------------|
  *  *  *  *   *  *   *  *  *   *  *  *   *  *   *  * 

|--------12-13-12h13-12h13-12h13-12h13-12h13-12h13--------|
|-13-10---------------------------------------------------|
|---------------------------------------------------------|
|---------------------------------------------------------|
|---------------------------------------------------------|
|---------------------------------------------------------|
  *  *  *  *


|-----------------------------------------------------------------------------------|
|-1515----1515--------1515-----1515--------1515--1515-------------------------------|
|-1414----1414--------1414-----1414--------1414--1414----10-1010--1414--1717-171717-|
|-1212----1212--------1212-----1212--------1212--1212-------------------------------|
|------00------00--00-------00------00--00------------00-8--8-8---1212--1515-151515-|
|------00------00--00-------00------00--00------------00----------------------------|
       **      **  **       **      **  **            ** 

|------------------------------------------------18/17----|
|-1111----1111--------11111111---11111111--12/18----------|
|-1010----1010--------10101010---10101010-----------------|
|-8-8-----8-8---------8-8-8-8----8-8-8-8------------------|
|------00------00--00----------0--------------------------|
|------00------00--00----------0--------------------------|
       **      **  **          * 

|--------------------------------------------|
|---1515--1515-------------------------------|
|---1414--1414----10-1010--1414--1717-171717-|
|---1212--1212-------------------------------|
|-------00----00--8--8-8---1212--1515-151515-|
|-------00----00-----------------------------|
        **    **  

|------------------------------------------------18/17----|
|-1111----1111--------11111111---11111111--12/18----------|
|-1010----1010--------10101010---10101010-----------------|
|-8-8-----8-8---------8-8-8-8----8-8-8-8------------------|
|------00------00--00----------0--------------------------|
|------00------00--00----------0--------------------------|
       **      **  **          *   

-------------------------|
-------------------------|
-------------------------|
--------------33----22---|
-1-1-1-----00----00---00-|
-------000---------------|

Do Chorus-

-------------------------|
-------------------------|
-------------------------|
-0~----------------------|
-0~----------------------|
-0~----------------------|


Bridge-
|---------------------------------------------------------------|
|---------------------------------------------------------------|
|---------------------------------------------------------------|
|-000-333--888-101010--88-1212--101010---10-10----------1010----|
|-000-333--888-101010--88-1212--101010---10-10----------1010----|
|-000-333--888-101010--88-1212--101010---10-10--8888888-1010----|
                                                *******
|---------------------------------------------------------------|
|---------------------------------------------------------------|
|---------------------------------------------------------------|
|-000-333--888-000---1010-88--101010----8h10-10-x-1010----------|
|-000-333--888-000---1010-88--101010--8-8h10-10-x-1010----------|
|-000-333--888-000---1010-88--101010--8-8h10-10-x-1010----------|
                                      *

|---------------------------------------------------------------|
|---------------------------------------------------------------|
|---------------------------------------------------------------|
|-000-333--888-101010--88-1212--101010---10-10----------1010----|
|-000-333--888-101010--88-1212--101010---10-10----------1010----|
|-000-333--888-101010--88-1212--101010---10-10--8888888-1010----|
                                                *******
|-------------------------------------------------------|
|-------------------------------------------------------|
|-------------------------------------------------------|
|-000-333--888-000---1010-88--101010101010101010101010--|
|-000-333--888-000---1010-88--101010101010101010101010--|
|-000-333--888-000---1010-88--101010101010101010101010--|
                                    

|--------------------------------------------------------------------------------|
|--------------------------------------------------------------------------------|
|--------------------------------------------------------------------------------|
|-10-10-10-10-10-10-10-10-10-10-10-10-10-8-8-8-8-8-8-8-8-10-10-10-10-10-10-10-10-|
|-10-10-10-10-10-10-10-10-10-10-10-10-10-8-8-8-8-8-8-8-8-10-10-10-10-10-10-10-10-|
|-10-10-10-10-10-10-10-10-10-10-10-10-10-8-8-8-8-8-8-8-8-10-10-10-10-10-10-10-10-|
 
|--------------------------------------------------------------------------------|
|--------------------------------------------------------------------------------|
|--------------------------------------------------------------------------------|
|-0-0-0-0-0-0-0-0-10-10-10-10-10-10-10-8-8-8-8-8-8-8-8-10-10-10-10-10-10-10-10---|
|-0-0-0-0-0-0-0-0-10-10-10-10-10-10-10-8-8-8-8-8-8-8-8-10-10-10-10-10-10-10-10---|
|-0-0-0-0-0-0-0-0-10-10-10-10-10-10-10-8-8-8-8-8-8-8-8-10-10-10-10-10-10-10-10---|


|------------------------------|
|------------------------------|
|------------------------------|
|-0-0-0-0-0-0-0-0-0-0-0-0-0----|
|-0-0-0-0-0-0-0-0-0-0-0-0-0----|
|-0-0-0-0-0-0-0-0-0-0-0-0-0----|

End
Добавлено: 06.08.2013
Другие материалы по этой песне:
  • Аккорды и текст

Страница создана 04.08.2013
http://primanota.ru/a-skylit-drive/prelude-to-a-dream-chords.htm
Привет, Гость.
Предлагаем пройти революционный курс по гитаре.
Подарок от PrimaNota.Ru, забирай!