PrimaNota.ru - самый крупный в мире бесплатный архив песенных текстов, аккордов, табулатур и нот


A Skylit Drive - Past The Love The Memories - таба, бас-таба, видео

Регистрация Запомнить меня
Войти через:  Facebook Google Twitter Vk Yandex Mail.ru

A Skylit Drive - Past The Love The Memories - таба, бас-таба, видео

Печатать
Просмотров: 86
the past the love the memories
by: A Skylit Drive
Album: She watched the Sky

i dunno the other guitar's part here coz I cant hear it well in my right, or left speaker...
Im not sure bout this...

intro:
 |------0-0-0------0---0------|
 |-12-10-0-0-0-10-8-8-7-8-10--|
 |----------------------------|
 |----------------------------|
 |----------------------------|
 |----------------------------|

next is:
 |------0-0-0------0---0-------|          /
 |-12-10-0-0-0-10-8-8-7-8-10---|          /
 |-----------------------------|          /
 |-----------------------------| x3       /
 |-----------------------------|          /
 |-----------------------------|          /
                                          / x2
 |------0-0-0-11-0-7-10-0-8-12--|         /
 |-12-10-0-0-0------------------|         /
 |------------------------------|         /
 |------------------------------|         /
 |------------------------------|         /
 |------------------------------|         /

(00:29)
 |-12-0-10-12-0-10-14-14-12-0-10-12-0-10-14-14---------------------|
 |--------------------------------------------12-12-12-15-15-15----|
 |-----------------------------------------------------------------|
 |-----------------------------------------------------------------|
 |-----------------------------------------------------------------|
 |-----------------------------------------------------------------|

  -----------------------12-12--|
  ------12-12-12-15-15-15-------|
  -12-12------------------------|
  ------------------------------| x4
  ------------------------------|
  ------------------------------|

verse:
 |----------------------------------|
 |----------------------------------|
 |----------------------------------|
 |-5~-5~-5~--5~-55~-3~-33~-5~-55~---| x2
 |-7~-7~-7~--7~-77~-3~-33~-5~-55~---|
 |----------------------------------|

pre-chorus:
 |-10-101010101010-1010101010101010-1010101010101010-1010101010101010----|
 |-----------------------------------------------------------------------|
 |-----------------------------------------------------------------------|
 |-----------------------------------------------------------------------|
 |-----------------------------------------------------------------------|
 |-----------------------------------------------------------------------|

chorus:
 |--------------------------------------------------------------------|
 |--------------------------------------------------------------------|
 |--------------------------------------------------------------------|
 |--------------------------------------------------------------------|
 |------------------------------10101010101010-10101010101010-9999999-|
 |-10101010101010-10101010101010--------------------------------------|

 --------15-----14--12-14-15-15-14-10-----|
 ----------11-12--11-----------------12---|
 -----------------------------------------|
 -----------------------------------------|
 -9999999---------------------------------|
 -----------------------------------------|

the part after that is, i dunno... ^^

 |-12-0-10-12-0-10-14-14-12-0-10-12-0-10-14-14---------------------|
 |--------------------------------------------12-12-12-15-15-15----|
 |-----------------------------------------------------------------|
 |-----------------------------------------------------------------|
 |-----------------------------------------------------------------|
 |-----------------------------------------------------------------|

  -----------------------12-12--|
  ------12-12-12-15-15-15-------|
  -12-12------------------------|
  ------------------------------| x4?
  ------------------------------|
  ------------------------------|

verse:
 |----------------------------------|
 |----------------------------------|
 |----------------------------------|
 |-5~-5~-5~--5~-55~-3~-33~-5~-55~---| x2
 |-7~-7~-7~--7~-77~-3~-33~-5~-55~---|
 |----------------------------------|

pre-chorus:
 |-10-101010101010-1010101010101010-1010101010101010-1010101010101010----|
 |-----------------------------------------------------------------------|
 |-----------------------------------------------------------------------|
 |-----------------------------------------------------------------------|
 |-----------------------------------------------------------------------|
 |-----------------------------------------------------------------------|

chorus:
 |--------------------------------------------------------------------|
 |--------------------------------------------------------------------|
 |--------------------------------------------------------------------|
 |--------------------------------------------------------------------|
 |------------------------------10101010101010-10101010101010-9999999-|
 |-10101010101010-10101010101010--------------------------------------|

 --------15-----14--12-14-15-15-14-10-----|
 ----------11-12--11-----------------12---|
 -----------------------------------------|
 -----------------------------------------| x2
 -9999999---------------------------------|
 -----------------------------------------|

Bridge:
 |-----------------------|
 |-----------------------|
 |-4-5------------7------|
 |----7-5-4-----5--5-----| x3
 |---------5-5h7-7--7----|
 |-----------------------|

 |--------------------------|
 |-----------------7---7/9--|
 |-4-5-7-5-4-----5--5-7-----|
 |----------5-5h7-7--9------|
 |--------------------------|
 |--------------------------|

then:
 |--------------------------|
 |-----------------7---7/9--|
 |-4-5-7-5-4-----5--5-7-----|
 |----------5-5h7-7--9------| x4
 |--------------------------|
 |--------------------------|

outro:
 |----------------------|
 |----------------------|
 |--5~------------------|
 |------5~--------------|
 |----------5h7~--------|
 |----------------------|

hahahah...
©®™°º¹²³
just tried...
Добавлено: 04.08.2013
Другие материалы по этой песне:
  • Аккорды и текст

Страница создана 04.08.2013
http://primanota.ru/a-skylit-drive/past-the-love-the-memories-chords.htm
Привет, Гость.
Предлагаем пройти революционный курс по гитаре.
Подарок от PrimaNota.Ru, забирай!