PrimaNota.ru - самый крупный в мире бесплатный архив песенных текстов, аккордов, табулатур и нот


A Skylit Drive - Fuck The System - таба, видео

Регистрация Запомнить меня
Войти через:  Facebook Google Twitter Vk Yandex Mail.ru

A Skylit Drive - Fuck The System - таба, видео

Печатать
Просмотров: 117
Fuck The System
C#G#C#F#A#D#

Intro/Verse
|-----------------------------|-----------------------------------------------------|
|-----------------------------|-----------------------------------------------------|
|-10---9---10---12---9---10---|-10---9---10-12-9-5-7---5---3---7---5---3---9---10---|
|---x2--x2---x6---x6--x2---x2-|---x2--x2------------x2--x2--x2--x2--x2--x2--x8---x8-|
|-8----7---8----10---7---8----|-8----7---8--10-7-3-5---3---1---5---3---1---7---8----| 
|-----------------------------|-----------------------------------------------------|

Pre Chorus
|------------------------------------------------------------------|
|------------------------------------------------------------------|
|------------------------------------------------------------------|
|------------------------------------------------------------------|
|-0-xlots--3/8-8-8--0-xlots-----------------------0-xlots--3/8-8-8-|
|-0--------3/8-8-8--0--------x-x-3*-x-x-5*-x-x-7*-0--------3/8-8-8-|

Chorus
|------------------|-------------------|---------------------------|-------------------|
|------------------|-------------------|---------------------------|-------------------|
|------------------|-------------------|---------------------------|-------------------|
|-0----3----8----3-|-0----3----10----8-|-0----3----8----10----8----|-0----3----10----8-|
|-0-x8-3-x8-8-x8-3-|-0-x8-3-x8-10-x8-8-|-0-x8-3-x8-8-x4-10-x4-8-x2-|-0-x8-3-x8-10-x8-8-|
|-0----3----8----3-|-0----3----10----8-|-0----3----8----10----8----|-0----3----10----8-|

Repeat Verse
Repeat Pre Chorus
Repeat Chorus
Bridge
|--------------------------------------------------|
|--------------------------------------------------|
|--------------------------------------------------|
|----------10------------------10----3~------------|
|-0-xlots--8--x4-10*--0-xlots--8--x4-5~------------|
|-0--------8----------0--------8-----5~----8-8-8-3-|

Repeat Chorus
Outro
|----------------------------------------------|
|----------------------------------------------|
|-----10-------10-------10-------10------------|
|-0-0---x4-0-0---x2-0-0---x2-0-0---x4----------|
|-0-0-8----0-0-8----0-0-8----0-0-8-----0-xlots-|
|-0-0------0-0------0-0------0-0-------0-------|

Добавлено: 24.11.2013
Другие материалы по этой песне:
  • Аккорды и текст

Страница создана 24.11.2013
http://primanota.ru/a-skylit-drive/fuck-the-system-chords.htm
Привет, Гость.
Предлагаем пройти революционный курс по гитаре.
Подарок от PrimaNota.Ru, забирай!