PrimaNota.ru - самый крупный в мире бесплатный архив песенных текстов, аккордов, табулатур и нот


A Skylit Drive - Ex Marks The Spot - текст песни, таба, видео

Регистрация Запомнить меня
Войти через:  Facebook Google Twitter Vk Yandex Mail.ru

A Skylit Drive - Ex Marks The Spot - текст песни, таба, видео

Печатать
Просмотров: 109
Ex Marks the Spot
A Skylit Drive
C#G#C#FA#D#

Intro
|--------------------------------------------------------------------------------|
|-----6------------6-----------------------------6------------6------------------|
|-----9-xlots------9-xlots-----------------------9-xlots------9-xlots------6-----|
|---------------------------3p0------5p0--------------------------------------0~-|
|-0-x4--------0-x4---------------5/7-----7/8-0-x4--------0-x4------------0-4--0~-|
|-0-----------0------------------------------0-----------0------------3*-0----0~-|

Verse
|------------------------------------------------|
|------------------------------------------------|
|------17---14---------12---14-------------------|
|-0------x4---x4--0------x4---x4--8----3----7----|
|-0-x8-15---12----0-x8-10---12----8-x8-3-x8-7-x8-|
|-0---------------0---------------8----3----7----|

Then
|-------------------------------10-10-12-12-13-----------------------------|
|--------------------------8/11--------------------------------------------|
|-----------------------------------------------10---12---14---15---10-----|
|-0----5h7-0---------0----------------------------x4---x4---x4---x4---x4-0-|
|-0-x8-------8p0-----0-x8-----------------------8----10---12---13---8----0-|
|-0--------------3b--0---------------------------------------------------0-|

Chorus
|------------------------------|
|------------------------------|
|------------/10---------------|
|-0-0--0--0-----x8--8----10----|
|-0-0--0--0--/8-----8-x8-10-x8-| x2
|-0-0--0--0---------8----10----|

Repeat Intro
Pre Verse
|----------------------------------|
|----------------------------------|
|---------10/9---6-----------------|
|-0-----------x3---0---------------|
|-0-xlots-8-/7---4-0---7---7-8-7---|
|-0----------------0-----8-------0-|

Repeat Verse
Repeat Chorus
Bridge
|----------------------|
|----------------------|
|----------------------|
|-0-x8-8-x8-7-x8-10-x8-|
|----------------------| x4
|----------------------|

Then
|-----------------------------------------------------------|-13-12-13-12-13-12-------|
|-----------------------------------------------------------|-------------------13/10-|
|-------9----10----9-12-------9----9h10p9--------9----10----|-------------------------|
|-10-10---10----10------10-10---10---------10-10---10----10-|-------------------------|
|-----------------------------------------------------------|-------------------------|
|-----------------------------------------------------------|-------------------------|

|-----------------------------------------------------------|-/17-15-13-12b-------------|
|-----------------------------------------------------------|---------------13-10-13-10-|
|-------9----10----9-12-------9----9h10p9--------9----10----|---------------------------|
|-10-10---10----10------10-10---10---------10-10---10----10-|---------------------------|
|-----------------------------------------------------------|---------------------------|
|-----------------------------------------------------------|---------------------------|

|-----------------------------------------------------------|-13-12----12----------|
|-----------------------------------------------------------|-------13----13-10----|
|-------9----10----9-12-------9----9h10p9--------9----10----|-------------------12-|
|-10-10---10----10------10-10---10---------10-10---10----10-|----------------------|
|-----------------------------------------------------------|----------------------|
|-----------------------------------------------------------|----------------------|

|-----------------------------------------------------------|---------------|
|-----------------------------------------------------------|---------------|
|-------9----10----9-12-------9----9h10p9--------9----10----|---------------|
|-10-10---10----10------10-10---10---------10-10---10----10-|-10------------|
|-----------------------------------------------------------|-10----0-0-0-0-|
|-----------------------------------------------------------|-10----0-0-0-0-|

Chorus
|--------------------------------|
|--------------------------------|
|-------/10---/12----------------|
|-0--------x8----x8--8-----10----|
|-0-x8--/8----/10----8-x8--10-x8-|
|-0------------------8-----10----|

|----------------------|----|----|
|----------------------|----|----|
|----------------------|----|----|
|-0----8----3----10----|----|-0~-|
|-0-x8-8-x8-3-x8-10-x8-|-x4-|-0~-|
|-0----8----3----10----|----|-0~-|
Добавлено: 08.06.2013
Другие материалы по этой песне:
  • Аккорды и текст

Страница создана 08.06.2013
http://primanota.ru/a-skylit-drive/ex-marks-the-spot-chords.htm
Привет, Гость.
Предлагаем пройти революционный курс по гитаре.
Подарок от PrimaNota.Ru, забирай!