PrimaNota.ru - самый крупный в мире бесплатный архив песенных текстов, аккордов, табулатур и нот


A Skylit Drive - Eris And Dysnomia - текст песни, таба, видео

Регистрация Запомнить меня
Войти через:  Facebook Google Twitter Vk Yandex Mail.ru

A Skylit Drive - Eris And Dysnomia - текст песни, таба, видео

Печатать
Просмотров: 112

Intro/Verse-

The time has come to show yourself
Nothing can stop us now

GtrI
|-----------------------------------------------------------------|
|-----------------------------------------------------------------|
|-------------------------------1010101010101010-1010101010101010-|
|-0-7h8-0-7-8-0-12p10-0-10h12-0-8-8-8-8-8-8-8-8-------------------|
|-0-7h8-0-7-8-0-12p10-0-10h12-0-8-8-8-8-8-8-8-8--1212121212121212-|
|-0-7h8-0-7-8-0-12p10-0-10h12-0-8-8-8-8-8-8-8-8-------------------|

GtrII
|-----------------------------------------------------------------|
|-----------------------------------------------------------------|
|-------------------------------1010101010101010-1010101010101010-|
|-0-7h8-0-7-8-0-----------------8-8-8-8-8-8-8-8-------------------|
|-0-7h8-0-7-8-0-12p10-0-10h12-0-8-8-8-8-8-8-8-8--1212121212121212-|
|-0-7h8-0-7-8-0-----------------8-8-8-8-8-8-8-8-------------------|

GtrI&GtrII
                          This is a wasteland...  Make your move,,, 
|----------------------------------------------------------------|
|----------------------------------------------------------------|
|----------------------------------------------------------------|
|-8-7-0-8-7-5---------------------------------------8/0-8/0-8/0--|
|-8-7-0-8-7-5--0-000-00-00-00-------0-000-00-00-00--8/0-8/0-8/0--|
|-8-7-0-8-7-5--0-000-00-00-00-------0-000-00-00-00--8/0-8/0-8/0--|

|-----------------------------------------------------------|
|-----------------------------------------------------------|
|-----------------------------------------------------------|
|--------------------------------------8/0-8/0--------------|
|-0-000-00-00-00-------0-000-00-00-00--8/0-8/0--------------|
|-0-000-00-00-00-------0-000-00-00-00--8/0-8/0--------------|


Chorus-
Everybody everybody get down get down
This isn't a lie
Just take a word from the wise
GtrI
|----------------------------------------------------------------|
|----------------------------------------------------------------|
|----------------------------------------------------------------|
|-0-0-3-0-3h5-3-0-3h5p3-0-3h5p3-3-3-0-3h5-3-0-3h5p3-0-3h5p3------|
|-0-----------------------------1--------------------------------|
|-0--------------------------------------------------------------|

|----------------------------------------------------------------|
|----------------------------------------------------------------|
|----------------------------------------------------------------|
|-t8/7-3-0-3h5-3-0-3h5p3-0-3h5p3-t8/7-3-0-3h5-3-0-3h5p3-0-3h5p3--|
|----------------------------------------------------------------|
|----------------------------------------------------------------|

GtrII
|-----------------------------------------|
|-----------------------------------------|
|-----------------------------------------|2x
|-0-0-0-0-0-0-0-0-0-8-8-8-8-10-10-10-10---|
|-0-0-0-0-0-0-0-0-0-8-8-8-8-10-10-10-10---|
|-0-0-0-0-0-0-0-0-0-8-8-8-8-10-10-10-10---|

then

This is a wasteland
Make your move
Gtrs
|-----------------------------------------------------------|
|-----------------------------------------------------------|
|-----------------------------------------------------------|
|--------------------------------------8/0-8/0-8/0----------|
|-0-000-00-00-00-------0-000-00-00-00--8/0-8/0-8/0----------|
|-0-000-00-00-00-------0-000-00-00-00--8/0-8/0-8/0----------|

|---------------12----------------------------------------------|
|-----------------13--------------------------------------------|
|-------------------14------------------------------------------|
|--------------------------------------8/0-8/0-8/0--8/0-8/0-8/0-|
|-0-000-00-00-00-------0-000-00-00-00--8/0-8/0-8/0--8/0-8/0-8/0-|
|-0-000-00-00-00-------0-000-00-00-00--8/0-8/0-8/0--8/0-8/0-8/0-|


They are coming for you
It's tearing us all into pieces
|-----------------------------------------------------------------|
|-----------------------------------------------------------------|
|-------------------------------1010101010101010-1010101010101010-|
|-0-7h8-0-7-8-0-12p10-0-10h12-0-8-8-8-8-8-8-8-8-------------------|
|-0-7h8-0-7-8-0-12p10-0-10h12-0-8-8-8-8-8-8-8-8--1212121212121212-|
|-0-7h8-0-7-8-0-12p10-0-10h12-0-8-8-8-8-8-8-8-8-------------------|


               Bridge--
|----------------------------------------------------------------|
|----------------------------------------------------------------|
|----------------------------------------------------------------|
|-8-7-0-8-7-5--0-------------------------------------------------|
|-8-7-0-8-7-5--0-------------------------------------------------|
|-8-7-0-8-7-5--0-------------------------------------------------|

1:06
I'll find you in the deepest of nights
You'll be the one who sets me free

Gtr with delay
|-13p12-(13)(12)------------------------------------|
|----------------13---(13)-13/15(13)----------------|
|-------------------14---------------12/14-(12)(14)-|
|---------------------------------------------------|
|---------------------------------------------------|
|---------------------------------------------------|

|-13p12-(13)(12)------------------------------------|
|----------------13---(13)----------------13/15(13)-|
|-------------------14----12/14-(12)(14)------------|
|---------------------------------------------------|
|---------------------------------------------------|
|---------------------------------------------------|

|-13p12-(13)(12)------------------------------------|
|----------------13---(13)-13/15(13)----------------|
|-------------------14---------------12/14-(12)(14)-|
|---------------------------------------------------|
|---------------------------------------------------|
|---------------------------------------------------|

|-13p12-(13)(12)------------------------------------|
|----------------13---(13)--------------------------|
|-------------------14------------------------------|
|---------------------------------------------------|
|---------------------------------------------------|
|---------------------------------------------------|

To all of our wasted nights
To all of our wrongs we made right
GtrII
|---------------------------------------------|
|---------------------------------------------|
|---------------------------------------------|
|-0000000000000000-88888888-1010101010101010--|2x
|-0000000000000000-88888888-1010101010101010--|
|-0000000000000000-88888888-1010101010101010--|

GtrI@1:25
|-----------------------------------------------|
|-----------------------------------------------|
|-----------------------------------------------|
|-t8/7-p3-p0-h3-h5-p3-p0-h3-p0-h3-h5-p3-p0-h3---|2x
|-----------------------------------------------|
|-----------------------------------------------|

Do Chorus-2x
Everybody everybody get down get down
This isn't a lie
Just take a word from the wise


This is a wasteland                   Make your move        
|-----------------------------------------------------------|
|-----------------------------------------------------------|
|-----------------------------------------------------------|
|--------------------------------------8/0-8/0-8/0----------|
|-0-000-00-00-00-------0-000-00-00-00--8/0-8/0-8/0----------|
|-0-000-00-00-00-------0-000-00-00-00--8/0-8/0-8/0----------|

|---------------12----------------------------------------------|
|-----------------13--------------------------------------------|
|-------------------14------------------------------------------|
|--------------------------------------8/0-8/0-8/0--8/0-8/0-8/0-|
|-0-000-00-00-00-------0-000-00-00-00--8/0-8/0-8/0--8/0-8/0-8/0-|
|-0-000-00-00-00-------0-000-00-00-00--8/0-8/0-8/0--8/0-8/0-8/0-|


Добавлено: 18.11.2013
Другие материалы по этой песне:
  • Аккорды и текст

Страница создана 22.08.2013
http://primanota.ru/a-skylit-drive/eris-and-dysnomia-chords.htm
Привет, Гость.
Предлагаем пройти революционный курс по гитаре.
Подарок от PrimaNota.Ru, забирай!