PrimaNota.ru - самый крупный в мире бесплатный архив песенных текстов, аккордов, табулатур и нот


A Skylit Drive - Balance - текст песни, таба, видео

Регистрация Запомнить меня
Войти через:  Facebook Google Twitter Vk Yandex Mail.ru

A Skylit Drive - Balance - текст песни, таба, видео

Печатать
Просмотров: 135
Уроки эстрадного вокала в Санкт-Петербурге
Balance by A skylit drive


Gtr I - (e b g d a D

Intro-
|------------------------------------------------------|
|-----8-6---6----------------8-6---6-------------------|
|-7-5-----7--------------7-5-----7---------------------|
|--------------8-7-5------------------8-7-5------------|5x
|------------------------------------------------------|
|------------------------------------------------------|


Verse-
|-------------------------------------------------------|
|------8~-----10~-----11~------8~------10~-----11~------|
|-7-5---------------------------------------------------|
|-------------------------------------------------------|
|-------------------------------------------------------|
|-------------------------------------------------------|

|-------------------------------------------------------|
|------6~---------6-8-6~-------6~----6~-------8~--------|
|----3~--------8~-----------3~--------------------------|
|-5~--------7~------------5~----------------------------|
|-------------------------------------------------------|
|-------------------------------------------------------|

Chorus-
Part1
|------------------------------------------------------------------|
|----6h8p8----------------------------6h8p8------------------------|
|-----------7p0-5p0-----------7--------------7p0-5p0--5-5-8-5-55-8-|
|-55-----------------5-5-8-5----55--5------------------------------|
|-55--------------------------------5------------------------------|
|-55--------------------------------5------------------------------|
                     * * * *    **                    * * * * ** * 

|--------------------------------|
|---------6h8p8------------------|
|---------------7p0-------10-----|
|-3--33-3------------5h8---------|
|-3--33-3------------------------|
|-3--33-3------------------------|

Repeat Part1

Part2
|---------------------------------------------------------------|
|---------------------------------------------------------------|
|---------------------------------------77---------------5h7p5~-|
|-5-5-5-5-5-5-5-5-5-5-5-5-5-5-33-1--7h8----7h8-1010--7h8--------|
|-5-5-5-5-5-5-5-5-5-5-5-5-5-5-33-1------------------------------|
|-5-5-5-5-5-5-5-5-5-5-5-5-5-5-33-1------------------------------|

|--------------------------------|
|--------------------------------|
|----77-55-----------------------|
|-7h8------7p0-8p0--5h7-8--------|
|--------------------------------|
|--------------------------------|

Repeat Part2

1:25                              1:31                           
|-------------------------------------------------------|
|-------------------------------------------------------|
|-------------------------------------------------------|
|-5--------------------------------1--------------------|
|-5--------------------------------1--------------------|
|-5--------------------------------1--------------------|

Bridge-
|-------------------------------------------------------|
|-------------------------------------------------------|
|-------------------------------------------------------|
|-5-------1------3--------------5-------1------3--------|
|-5-------1------3-(1)-s3-------5-------1------3--------|
|-5-------1------3--------------5-------1------3--------|

|-------------------------------------------------------|
|-------------------------------------------------------|
|-------------------------------------------------------|
|-5-------1------3--------------5-------1-1-----33------|
|-5-------1------3-(1)-s3-------5-------1-1-----33------|
|-5-------1------3--------------5-------1-1-----33------|

Chorus-

Outro-Use Delay
Do and  repeat 'til fade
|--------------------------------------------|
|------------6------6-8-(6)(8)-3-(3)---------|
|-----3--(3)---3----------------------5------|
|-5-5--(5)-----------------------------------|
|--------------------------------------------|
|--------------------------------------------|

|--------------------------------------------|
|------------6------6-8-(6)(8)-8/10~---------|
|-----3--(3)---3-----------------------------|
|-5-5--(5)-----------------------------------|
|--------------------------------------------|
|--------------------------------------------|


|--------------------------------------------|
|------------6------6-8-(6)(8)-3-(3)---------|
|-----3--(3)---3----------------------5------|
|-5-5--(5)-----------------------------------|
|--------------------------------------------|
|--------------------------------------------|


|--------------------------------------------|
|------------6~------------------------------|
|-----3--(3)---------------------------------|
|-5-5--(5)-----------------------------------|
|--------------------------------------------|
|--------------------------------------------|



Gtr II - (e b g d a D

Intro-
|-18181818-18-17-------------18181818-18-17------------|
|----------------18-------------------------18---------|
|-------------------19-------------------------19------|
|------------------------------------------------------|5x
|------------------------------------------------------|
|------------------------------------------------------|


Verse-
|------------------------13~----------------------------|
|------8~-----10~-----11~------8~---11-10~-----11~------|
|-------------------------------------------------------|
|-------------------------------------------------------|
|-------------------------------------------------------|
|-------------------------------------------------------|

|-------------------------------------------------------|
|------6~---------6-8-6~-------6~----6~-------8~--------|
|----3~--------8~-----------3~--------------------------|
|-5~--------7~------------5~----------------------------|
|-------------------------------------------------------|
|-------------------------------------------------------|

Chorus-
Part1
|-------------------------------------------------------------------------|
|------------------------------11--------------------------------13-------|
|-----7h8p7------------------------------7h8p7--------------10------10----|
|-55--------8p0-10p0-1010-13-10--13-10-5-------8p0-10p0-1212---12-----12--|
|-55-----------------------------------5----------------------------------|
|-55-----------------------------------5----------------------------------|
                     * *  * *    *  *                   * *  * *  * * * 

|--------------------------------|
|--------------------------------|
|---------7h8p7------------------|
|-3--33-3--------8p0-10p0-5h7-8--|
|-3--33-3------------------------|
|-3--33-3------------------------|

Repeat Part1

Part2
|---------------------------------------------------------------|
|---------------------------------------------------------------|
|---------------------------------------------------------------|
|-5-5-5-5-5-5-5-5-5-5-5-5-5-5-33-1--5-7-8-8-7-5-8-8-7-5-7-8-7---|
|-5-5-5-5-5-5-5-5-5-5-5-5-5-5-33-1------------------------------|
|-5-5-5-5-5-5-5-5-5-5-5-5-5-5-33-1------------------------------|

|--------------------------------|
|--------------------------------|
|--------------------------------|
|-----1010-8-8-------------------|
|-8-8-----------7p0-8p0-5h7-8----|
|--------------------------------|

Repeat Part2

1:25                              1:31                           
|-------------------------------------------------------|
|-------------------------------------------------------|
|-------------------------------------------------------|
|-5--------------------------------1--------------------|
|-5--------------------------------1--------------------|
|-5--------------------------------1--------------------|

Bridge-
|-------------------------------------------------------|
|-------------------------------------------------------|
|-------------------------------------------------------|
|-5-------1------3--------------5-------1------3--------|
|-5-------1------3--------------5-------1------3--------|
|-5-------1------3--------------5-------1------3--------|

|-------------------------------------------------------|
|-------------------------------------------------------|
|-------------------------------------------------------|
|-5-------1------3--------------5-------1-1-----33------|
|-5-------1------3--------------5-------1-1-----33------|
|-5-------1------3--------------5-------1-1-----33------|

Chorus-

Outro-Use Delay
Do and  repeat 'til fade

|-18-18-17-(18)(17)---17----(17)-------------------|
|-------------------18---(18)----18-15---15--------|
|--------------------------------------17----15----|
|--------------------------------------------------|
|--------------------------------------------------|
|--------------------------------------------------|


|-18-18-17-(18)(17)---17----(17)-------------------|
|-------------------18---(18)----18-15-15-(15)-11--|
|--------------------------------------15-(15)-10--|
|--------------------------------------------------|
|--------------------------------------------------|
|--------------------------------------------------|


|-18-18-17-(18)(17)---17----(17)-------------------|
|-------------------18---(18)----18-15---15--------|
|--------------------------------------17----15----|
|--------------------------------------------------|
|--------------------------------------------------|
|--------------------------------------------------|


|-18-18-17~--~---------------------------|
|----------------------------------------|
|-------------------------15-------15----|
|--------------12-12-15p12---15p12-------|
|----------------------------------------|
|----------------------------------------|


Pls comment if you'll spot some wrong parts...i not really sure of how it's played esp GtrII

Добавлено: 14.06.2013
Другие материалы по этой песне:
  • Аккорды и текст

Страница создана 14.06.2013
http://primanota.ru/a-skylit-drive/balance-chords.htm
Привет, Гость.
Предлагаем пройти революционный курс по гитаре.
Подарок от PrimaNota.Ru, забирай!