PrimaNota.ru - самый крупный в мире бесплатный архив песенных текстов, аккордов, табулатур и нот


A Skylit Drive - According To Colombus - бас-таба, видео

Регистрация Запомнить меня
Войти через:  Facebook Google Twitter Vk Yandex Mail.ru

A Skylit Drive - According To Colombus - бас-таба, видео

Печатать
Просмотров: 93
+++++++++++++++++++++++++++++++++++++++++
| A Skylit Drive- According To Colombus |
+++++++++++++++++++++++++++++++++++++++++

This is a great song
But I dunno on what its according to colombus 
:S

Tuning: Drop D (DADG)

Intro
"Save meee!!"
1.
G|-----------------------------------------------------------------|
D|-----------------------------------------------------------------|
A|-----------------11-1111-111-111-----------------33-3333-333-333-|
D|-00-0000-000-000-----------------33-3333-333-333-----------------|

"Cold front coming..."
2.
G|------------------------------------------------------------------------|
D|------------------------------------------------------------------------|
A|-11111111-11111111-11111111-11111111-33333333-33333333-33333333-3~--3~--|
D|------------------------------------------------------------------------|

Verse
"The rest of your life..."
3.
G|-----------------------------------------------------------------------|
D|-----------------------------------------------------------------------|
A|-------------------------5000-1~----------------------------5000-1~----|--x2
D|-00000000x--0x--00x-00000-----------00000000x--0x--00x-00000-----------|

Chorus
"Meet me at the skylines..." These guys are freaks of the sky
4.
G|------------------------------------------------------------------------|
D|------------------------------------------------------------------------|
A|-------------------------------------11111111-11111111-11111111-111-111-|
D|-33333333-33333333-33333333-30000000------------------------------------|

"Meet me at the skylines..."
5.
G|------------------------------------------------------------------------|
D|----------02222333------------------------------------------------------|
A|-------------------11111111-11111111------------------------------------|
D|-00000000----------------------------33333333-33333333-33333333-000-000-|

Outro
6.
G|-------------------------------------------------------------------------|
D|----------------------------------------------02222333-------------------|
A|-11111111-11111111-11111111-11111x---------------------11111111-11111111-|
D|-------------------------------------00000000----------------------------|

Intro
"Save meee!!"
7.
G|-----------------------------------------------------------------|
D|-----------------------------------------------------------------|
A|-----------------11-1111-111-111-----------------33-3333-333-333-|
D|-00-0000-000-000-----------------33-3333-333-333-----------------|

"Cold front coming..."
8.
G|------------------------------------------------------------------------|
D|------------------------------------------------------------------------|
A|-11111111-11111111-11111111-11111111-33333333-33333333-33333333---------|
D|------------------------------------------------------------------------|

Verse
"The rest of your life..."
9.
G|-----------------------------------------------------------------------|
D|-----------------------------------------------------------------------|
A|-------------------------5000-1~----------------------------5000-1~----|--x2
D|-00000000x--0x--00x-00000-----------00000000x--0x--00x-00000-----------|

Chorus
"Meet me at the skylines..."
10.
G|------------------------------------------------------------------------|
D|------------------------------------------------------------------------|
A|-------------------------------------11111111-11111111-11111111-111-111-|
D|-33333333-33333333-33333333-30000000------------------------------------|

"Meet me at the skylines..."
11.
G|------------------------------------------------------------------------|
D|----------02222333------------------------------------------------------|
A|-------------------11111111-11111111------------------------------------|
D|-00000000----------------------------33333333-33333333-33333333-000-000-|

Outro
12.
G|-------------------------------------------------------------------------|
D|----------------------------------------------02222333-------------------|
A|-11111111-11111111-11111111-11111x---------------------11111111-11111111-|
D|-------------------------------------00000000----------------------------|

Bridge
"Meet me at the skylines!!!
13.
G|-----------------------------------------------------------------------|
D|-----------------------------------------------------------------------|
A|-----------------------------------11111111-11111111-11111111-11111111-|--x3
D|-00x--00x--000000-00x--00x--0-0-0--------------------------------------|

"Meet me at the skylines!!!
14.
G|--------------------------------------------------------------------|
D|--------------------------------------------------------------------|
A|--------------------------------------------------------------------|
D|-00x--00x--000000-00x--00x--0-0-0--00x--00x--000000-00x--00x--0-0-0-|

"I dont think you know..."
15.
G|---------------------------------------------------------------------------|
D|---------------------------------------------------------------------------|
A|-------------------------------------1-1-1x----1-1-1x----1-1-1x---1--1-1-1-|--x2
D|-00000000-00000000-00000000-00000000--------------------------------3-3-3--|

"I dont think you know..."
16.
G|------------------------------------------------------------|
D|------------------------------------------------------------|
A|------------------------------------------------------------|
D|-0~---------------------------------------------------------|

Lyrics:

Save me
The skin that
Добавлено: 01.11.2013
Другие материалы по этой песне:
  • Аккорды и текст

Страница создана 01.11.2013
http://primanota.ru/a-skylit-drive/according-to-colombus-chords.htm
Привет, Гость.
Предлагаем пройти революционный курс по гитаре.
Подарок от PrimaNota.Ru, забирай!