PrimaNota.ru - самый крупный в мире бесплатный архив песенных текстов, аккордов, табулатур и нот


A Silver Mt Zion - American Motor Over Smoldered Field - текст песни, таба, видео

Регистрация Запомнить меня
Войти через:  Facebook Google Twitter Vk Yandex Mail.ru

A Silver Mt Zion - American Motor Over Smoldered Field - текст песни, таба, видео

Печатать
Просмотров: 73
Tabbed by Jacob Collier

Standard Tuning

Capo 1

E|--------------------------------------------------------------------------
B|--9--------9--------9--------9--------9--------9--------9--------9--------
G|-----1--------1--------1--------1--------1--------1--------1--------1-----
D|--------------------------------------------------------------------------
A|--------8--------8--------8--------8--------7--------7--------7--------7--
E|--------------------------------------------------------------------------

E|--------------------------------------------------------------------------
B|--9--------9--------9--------9--------7--------7--------7--------7--------
G|-----1--------1--------1--------1--------1--------1--------1--------1-----
D|--------------------------------------------------------------------------
A|--------6--------6--------6--------6--------6--------6--------6--------6--
E|--------------------------------------------------------------------------

E|--------------------------------------------------------------------------
B|--7--------7--------7--------7--------6--------6--------6--------6--------
G|-----1--------1--------1--------1--------1--------1--------1--------1-----
D|--------------------------------------------------------------------------
A|--------5--------5--------5--------5--------4--------4--------4--------4--
E|--------------------------------------------------------------------------

E|--------------------------------------------------------------------------
B|--7--------7--------7--------7--------6--------6--------6--------6--------
G|-----1--------1--------1--------1--------1--------1--------1--------1-----
D|--------------------------------------------------------------------------
A|--------5--------5--------5--------5--------4--------4--------4--------4--
E|--------------------------------------------------------------------------

E|--------------------------------------------------------------------------
B|--5--------5--------5--------5--------1--------1--------1--------1--------
G|-----1--------1--------1--------1--------3--------3--------3--------3-----
D|--------------------------------------------------------------------------
A|--------4--------4--------4--------4--------------------------------------
E|--------------------------------------------4--------4--------4--------4--

Добавлено: 22.06.2016
Другие материалы по этой песне:
  • Аккорды и текст

Страница создана 26.03.2012
http://primanota.ru/a-silver-mt-zion/american-motor-over-smoldered-field-chords.htm
Привет, Гость.
Предлагаем пройти революционный курс по гитаре.
Подарок от PrimaNota.Ru, забирай!