PrimaNota.ru - самый крупный в мире бесплатный архив песенных текстов, аккордов, табулатур и нот


A Silent Fiction - Taking Sierra By Storm - таба, видео

Регистрация Запомнить меня
Войти через:  Facebook Google Twitter Vk Yandex Mail.ru

A Silent Fiction - Taking Sierra By Storm - таба, видео

Печатать
Просмотров: 90
A SILENT FICTION 
TAKING SIERRA BY STORM
DROP D
GTR1 & GTR2
*  - palm mute
x  - mute
/\ - slides
hp - Hammeron/pulloff
«  - pinch harmonic
~  - let ring



INTRO
GTR1
E|-------------------------------------------------------------|
B|-------------------------------------------------------------|
G|-10~~-----------------------10~~-----------------------------|
D|-x--------------------------x--------------------------------|
A|-8~~------------------------8~~------------8888888888888888--|
D|-0~-------------------------0~-------------8888888888888888--|
GTR2                                         ****************
E|-------------------------------------------------------------|
B|-------------------------------------------------------------|
G|-7~-----------------------7~---------------------------------|
D|-x------------------------x----------------------------------|
A|-5~-----------------------5~---------------8888888888888888--|
D|-0~~----------------------0~~--------------8888888888888888--|
                                             ****************




CHORUS 0:19, 1:00, 1:57 (had to spread it out so its in unicen)
GTR1
E|---------------------------------------------------------------------------------------|
B|---------------------------------------------------------------------------------------|
G|-10101010101010101010/12~-12-14/15\14-14~-14-14-14-14-14-14-14-14-14/15\14~-10\12\10---|
D|-x-x-x-x-x-x-x-x-x-x//x---x--x--x--x--x---x--x--x--x--x--x--x--x--x--x--x---x--x--x----|
A|-8-8-8-8-8-8-8-8-8-8//10~-10-12/13\12-12~-12-12-12-12-12-12-12-12-12/13\12~-8//10\8----|
D|---------------------------------------------------------------------------------------|
GTR2
E|---------------------------------------------------------------------------------------|
B|---------------------------------------------------------------------------------------|
G|------------------------------------------------------------------10h12p10~\-9h10p9----|
D|-0-0-0-0-0-0-0-0--8-8-8-8-7---7---7---7---3--3--3--3--3--3--3--3-----------------------|
A|-0-0-0-0-0-0-0-0--8-8-8-8-7---7---7---7---3--3--3--3--3--3--3--3-----------------------|
D|-0-0-0-0-0-0-0-0--8-8-8-8-7---7---7---7~--3--3--3--3--3--3--3--3~----------------------|
||
GTR1
E|---------------------------------------------------------------------------------------------|
B|---------------------------------------------------------------------------------------------|
G|-10101010101010101010/12~-12-14/15\14-14~-14-14-14-14-14-14-14-14-14/17-17\15-15\13-13-13~---|
D|-x-x-x-x-x-x-x-x-x-x//x---x--x--x--x--x---x--x--x--x--x--x--x--x--x--x--x--x--x--x--x--x-----|
A|-8-8-8-8-8-8-8-8-8-8//10~-10-12/13\12-12~-12-12-12-12-12-12-12-12-12/15-15\13-13\12-12-12~---|
D|---------------------------------------------------------------------------------------------|
GTR2
E|---------------------------------------------------------------------------------------------|
B|---------------------------------------------------------------------------------------------|
G|--------------------------------------------------------------------------9-9-9-9-9-9--------|
D|-0-0-0-0-0-0-0-0--8-8-8-8-7---7---7---7---3--3--3--3--3--3--3--3--3--3----x-x-x-x-x-x--------|
A|-0-0-0-0-0-0-0-0--8-8-8-8-7---7---7---7---3--3--3--3--3--3--3--3--3--3----7-7-7-7-7-7--------|
D|-0-0-0-0-0-0-0-0--8-8-8-8-7---7---7---7~--3--3--3--3--3--3--3--3--3--3-----------------------|



POST CHORUS 0:29, 1:17
(The Post chorus at 1:17 just has more palm muted 0's and an PH at the end, shown in brackets)
GTR1
E|-------------------------------------------------------------------------------------|
B|-------------------------------------------------------------------------------------|
G|-------------------------------------------------------------------------------------|
D|------------------------------7-----------------------------------------7------------|
A|---8-8-8----8-8-8----8-8-8-7h8-8-10p8p7h8----8-8-8----8-8-8----8-8-8-7h8-8-10p8p7h8--|
D|-00-0-0---00-0-0---00-0-0------------------00-0-0---00-0-0---00-0-0------------------|
GTR2  * *   ** * *   ** * *                  ** * *   ** * *   ** * *
E|-------------------------------------------------------------------------------------|
B|-------------------------------------------------------------------------------------|
G|-------------------------------------------------------------------------------------|
D|-0~~~~~~~~--------------(///////////////)--------------------------------------------|
A|-0~~~~~~~~--------------(///PICKSLIDE///)--00------(00)-----(00)----(00)--(10«)------|
D|-0~~~~~~~~--------------(///////////////)--00------(00)-----(00)----(00)-------------|
() = played only on 2nd post chorus          **       **       **      **  





VERSE 1 0:37, 1:36
GTR1
E|------------------------------------------    --------------------------------------------------------|
B|------------------------------------------    --------------------------------------------------------|
G|------------------------------------------    --------------------------------------------------------|
D|------------------------------7----------- X2 ----------------------------------------7---------------|X2
A|---8-8-8----8-8-8----8-8-8-7h8-8-10p8p7h8-    ---8--8--8----8--8--8----8--8--8---7h8----8--10p8p7h8---|
D|-00-0-0---00-0-0---00-0-0-----------------    -00--0--0---00--0--0---00--0--0-------------------------|
GTR2  * *   ** * *   ** * *                      **  *  *   **  *  *   **  *  * 
E|------------------------------------------    --------------------------------------------------------|
B|------------------------------------------    --------------------------------------------------------|
G|------------------------------------------    ---14-14-14---14-14-14---14-14-14-12/14-----------------|
D|------------------------------7----------- X2 ---x--x--x----x--x--x----x--x--x--x--x--10p8-12p10p9h10-|X2
A|---8-8-8----8-8-8----8-8-8-7h8-8-10p8p7h8-    ---12-12-12---12-12-12---12-12-12-10/12-----------------|
D|-00-0-0---00-0-0---00-0-0-----------------    -00--0--0---00--0--0---00--0--0-------------------------|
   ** * *   ** * *   ** * *                      **  *  *   **  *  *   **  *  *



                              PLAY CHORUS X2
      

                              PLAY POST-CHORUS (with the numbers in brackets)



PRE-VERSE 2 "Pre-pare to Fall" 1:26
GTR1
E|-------------------------------------------------------------------------------------|
B|-------------------------------------------------------------------------------------|
G|-------------------------------------------------------------------------------------|
D|------------------------------7-----------------------------------------7------------|
A|---8-8-8----8-8-8----8-8-8-7h8-8-10p8p7h8----8-8-8----8-8-8----8-8-8-7h8-8-10p8p7h8--|
D|-00-0-0---00-0-0---00-0-0------------------00-0-0---00-0-0---00-0-0------------------|
GTR2  * *   ** * *   ** * *                  ** * *   ** * *   ** * *
E|-------------------------------------------------------------------------------------|
B|-------------------------------------------------------------------------------------|
G|-------------------------------------------------------------------------------------|
D|-------------------------------------------------------------------------------------|
A|-00-------00-------00----8-8-7-8-10-10-7-8-00-------00-------00----8-8-7-8-10-10-7-8-|
D|-00-------00-------00----8-8-7-8-10-10-7-8-00-------00-------00----8-8-7-8-10-10-7-8-|
   **       **       **    * * * * *  *  * * **       **       **    * * * * *  *  * * 


                              PLAY VERSE 2 (VERSE 1)


                              PLAY CHORUS X2




BREAKDOWN 2:15
GTR1
E|---------------------------------------------------|
B|---------------------------------------------------|
G|---------------------------------------------------|
D|----------7----------------------------------------| X2
A|-00-00-7h8-8-10p8p7h8--00-00-00--------------------|
D|-00-00-----------------00-00-00--------------------|
GTR2* **                 ** ** **
E|---------------------------------------------------|
B|---------------------------------------------------|
G|---------------------------------------------------|
D|----------------------------------10p7-12p10p9h10--| X2
A|-00-00-00--------------00-00-10h12-----------------|
D|-00-00-00--------------00-00-----------------------|
   ** ** **              ** **
                     "LET'S GO!"
GTR1
E|-------------------------------------------------------------|
B|-------------------------------------------------------------|
G|-------------------------------------------------------------|
D|----------7-------------------------------7----------7-------| X4
A|-00-00-7h8-8-10p8p7h8--------00-00-7h8h10-----7h8h10---(5)---|
D|-00-00-----------------------00-00---------------------------|
GTR2* **
E|-------------------------------------------------------------|
B|-------------------------------------------------------------|
G|-------------------------------------------------------------|
D|------------10p7-12p10p9h10----------------10---------10-(0)-| X4
A|-00-00-10h12-----------------00-00-10h12h13---10h12h13-------|
D|-00-00-----------------------00-00---------------------------|
   ** **
() - Last note of forth repeat





"Well, if I fall Tonight" 2:44
GTR1
E|-----------------------------------------------------------------------------|
B|-----------------------------------------------------------------------------|
G|-10~------9~-------7~-------5~-------10~------9~-------7~-------5~-----------|
D|-x--------x--------x--------x--------x--------x--------x--------x------------|
A|-8~-------7~-------5~-------3~-------8~-------7~-------5~-------3~---0-0-0-0-|
D|---------------------------------------------------------------------0-0-0-0-|..
GTR2                                                                   * * * *
E|-----------------------------------------------------------------------------|
B|-----------------------------------------------------------------------------|
G|----------14~------12~------14~------10~------12~------14~------15~----------|
D|-0~~~~----x--------x--------x--------x--------x--------x--------x------------|
A|-0~~~~----12~------10~------12~--////8~-------10~------12~------13~--0-0-0-0-|
D|-0~~~~~~~~~~~~~~~~~~~------------////--------------------------------0-0-0-0-|..
                                                                       * * * *



"Into the Night" 3:02
GTR1
E|------------------------------------------------------------|
B|------------------------------------------------------------|
G|-----15~----------15~----------15~----------15~---10\9-/10--|
D|-----x------------x------------x------------x-----x--x--x---| X2
A|-0-0-13~--8-0-0-0-13~--8-0-0-0-13~--8-0-0-0-13~-0-8-\7-/8---|
D|-0-0------8-0-0-0------8-0-0-0------8-0-0-0-----0-----------|..
GTR2 *      * * * *      * * * *      * * * *     *
E|------------------------------------------------------------|
B|------------------------------------------------------------|
G|-----15~----------15~----------15~----------15~---14\12/14--|
D|-----x------------x------------x------------x-----x--x--x---| X2
A|-0-0-13~--8-0-0-0-13~--8-0-0-0-13~--8-0-0-0-13~-0-12\10/12--|
D|-0-0------8-0-0-0------8-0-0-0------8-0-0-0-----0-----------|..
   * *      * * * *      * * * *      * * * *     *
3:18
GTR1 (TREMELO PICK THE OCTAVES 8 TIMES, SHIT QUICK!)
E|------------------------------------------------------|
B|-----tr--------tr--------tr--------tr-----------------|
G|-----7~--------7~--------7~--------7~---10\9-/10------|
D|-----x---------x---------x---------x----x--x--x-------| X2
A|-0-0-5~--0-0-0-5~--0-0-0-5~--0-0-0-5~-0-8-\7-/8-------|
D|-0-0-----0-0-0-----0-0-0-----0-0-0----0---------------|
GTR2 *     * * *     * * *     * * *    *
E|------------------------------------------------------|
B|-----tr---------tr---------tr---------tr--------------|
G|-----15~--------15~--------15~--------15~---14\12/14--|
D|-----x----------x----------x----------x-----x--x--x---| X2
A|-0-0-13~--0-0-0-13~--0-0-0-13~--0-0-0-13~-0-12\10/12--|
D|-0-0------0-0-0------0-0-0------0-0-0-----0-----------|
   * *      * * *      * * *      * * *     *

3:32, END ON:
GTR1
E|------------------------------------------------|
B|------------------------------------------------|
G|--7~~~~~~~~-------------------------------------|
D|--x~~~~~----------------------------------------|
A|--5~~~~~----------------------------------------|
D|--0~~~~~----------------------------------------|
GTR2
E|------------------------------------------------|
B|------------------------------------------------|
G|------------------------------------------------|
D|--0~~~~~~~~~~~~~~~~-----------------------------|
A|--0~~~~~~~~~~~~~~~~~~~~~------([{FEEDBACK]})----|
D|--0~~~~~~~~~~~~~~~~~~~--------------------------|

DONE. RATE AND COMMENT PL0X ;P
Добавлено: 23.11.2013
Вам также может быть интересно:
Другие материалы по этой песне:
  • Аккорды и текст

Страница создана 23.11.2013
http://primanota.ru/a-silent-fiction/taking-sierra-by-storm-chords.htm
Привет, Гость.
Предлагаем пройти революционный курс по гитаре.
Подарок от PrimaNota.Ru, забирай!