PrimaNota.ru - самый крупный в мире бесплатный архив песенных текстов, аккордов, табулатур и нот


A Shell In The Pit - Cicadas Waltz - таба, видео

Регистрация Запомнить меня
Войти через:  Facebook Google Twitter Vk Yandex Mail.ru

A Shell In The Pit - Cicadas Waltz - таба, видео

Печатать
Просмотров: 89
Title: Cicada's Waltz
Artist: A Shell in the Pit 
        Website:       http://www.ashellinthepit.com/
        Bandcamp page: http://ashellinthepit.bandcamp.com/
Album: Smarter Every Day
Tempo = 120
Steel Guitar

This Tabulature may not be perfect. Message me if you think that a part is wrong.

Legend
L - tied note
x - dead note
h - hammer on/pull off
b - bend
s - slide
~ - vibrato
g - ghost note
> - accentuated note
t - trill
M - palm mute
. - staccato
P - popping (bass)
S - slapping (bass)
+ - tapping
W - wide vibrato
< - fade in
w - whammy bar
= - tremolo picking
v - brush up
^ - brush down
V - pick stroke up
n - pick stroke down


E |--------5-----5-------|--------5-----5------|||-------5-----5-------|
B |-----6-----6-----6----|-----6-----6-----6---|||----6-----6-----6----|
G |--------7-----7-------|--------7-----7-----o|||o------5-----5-------|
D |--0-------------------|--7-----------------o|||o0-------------------|
A |----------------------|---------------------|||---------------------|
E |----------------------|---------------------|||---------------------|


--------5-----5------||--------3-----3-------|--------3-----3-------|
-----6-----6-----6---||-----5-----5-----5----|-----5-----5-----5----|
--------5-----5-----o||--------5-----5-------|--------5-----5-------|
--7-----------------o||--0-------------------|--5-------------------|
---------------------||----------------------|----------------------|
---------------------||----------------------|----------------------|


--------3-----3-------|--------3-----3-------|--------1-----1-------|
-----3-----3-----3----|-----3-----3-----3----|-----3-----3-----3----|
--------3-----3-------|--------3-----3-------|--------2-----2-------|
--0-------------------|--5-------------------|--0-------------------|
----------------------|----------------------|----------------------|
----------------------|----------------------|----------------------|


--------1-----1-------|--------0-----0-------|--------0-----0-------||
-----3-----3-----3----|-----2-----2-----2----|-----2-----2-----2----||
--------2-----2-------|--------0-----0-------|--------2-----2-------||
--3-------------------|--0-------------------|--2-------------------||
----------------------|----------------------|----------------------||
----------------------|----------------------|----------------------||


-------1-----1-------|--------1-----1------||--------1-------------------|
----3-----3-----3----|-----3-----3-----3---||-----3-----3-----1-----1----|
o------2-----2-------|--------2-----2-----o||--------2-------------------|
o0-------------------|--------------------o||--------------0-----2-------|
---------------------|--0------------------||--0-------------------------|
---------------------|---------------------||----------------------------|


--------1-----1-------|--------1-------------|--------1-----1-------|
-----1-----1-----1----|-----1-----1-----1----|-----1-----1-----1----|
--------2-----2-------|--------2-------------|--------2-----2-------|
--3-------------------|--------------0-------|----------------------|
----------------------|--3-------------------|----------------------|
----------------------|----------------------|--1-------------------|


--------1-----0-------|--------0-----0-------|--------0-----0-------|
-----1-----1----------|-----3-----3-----3----|-----3-----3-----3----|
--------2-----0-------|--------0-----0-------|--------0-----0-------|
----------------------|----------------------|----------------------|
--3-------------------|----------------------|--1-------------------|
----------------------|--3-------------------|----------------------|


----------------------|--------0-------------|--------1-------------|
-----3-----3-----3----|-----3-----3-----3----|-----3-----3-----3----|
----------------------|--------0-------------|--------2-------------|
--0-----2-----0-------|--------------0-------|--------------3-------|
----------------------|--1-------------------|--1-------------------|
----------------------|----------------------|----------------------|


--------1-----1-------|----------------------|--------0-----0-------|
-----3-----3-----3----|-----3-----3-----3----|-----2-----2-----2----|
--------2-----2-------|--------2-------------|--------0-----0-------|
----------------------|--3-----------3-------|----------------------|
--1-------------------|----------------------|--0-------------------|
----------------------|----------------------|----------------------|


----------------------||
-----2-----2----------||
--------0-----2-------||
--2-------------------||
----------------------||
----------------------||
Добавлено: 19.06.2013
Вам также может быть интересно:
Другие материалы по этой песне:

Страница создана 19.06.2013
http://primanota.ru/a-shell-in-the-pit/cicadas-waltz-chords.htm
Привет, Гость.
Предлагаем пройти революционный курс по гитаре.
Подарок от PrimaNota.Ru, забирай!