PrimaNota.ru - самый крупный в мире бесплатный архив песенных текстов, аккордов, табулатур и нот


A Second Chance - My Silhouette - таба, видео

Регистрация Запомнить меня
Войти через:  Facebook Google Twitter Vk Yandex Mail.ru

A Second Chance - My Silhouette - таба, видео

Печатать
Просмотров: 133
     these guys are not very popular and are new, find them on the websites below

These guys are a kickin' emo/rock band.  original style, listen to em at 
 theyre awesome


i think they play in drop d so thats what ill put, you dont need the d for the intro tho

each note is hit 4 times pretty fast

     this is the chorus too, along with the second part
e|-------------------------------------------------------------------------|
B|----14----14----12----12----11----11--------------12---------------------|
G|-11----11----11----11----11----11-----11h12p11h12----11-12-11-14-11-11-12|
D|-------------------------------------------------------------------------|
A|-------------------------------------------------------------------------|
D|-------------------------------------------------------------------------|

                                         ^it gets tricky right there...i doubt this is 
right way but it sounds cool and similar if you play it fast enough hahha, ive tried 
down a fret too and it sounds cool half a step down.

then it goes like this...notes still 4 times each
e|----------13--14------------------------------------------------------|
B|-------14---14---14---12---12---11---11-------------------------------|
G|----11--------------11---11---11---11----then that same riff again----|
D|----------------------------------------------------------------------|
A|----------------------------------------------------------------------|
D|----------------------------------------------------------------------|


the lead for the verse is something like this
e|--------------------------------------------------------------------|
B|-----------------------------8--------------------------------------|
G|-------------------------------7------------------------------------|
D|-5-4h5p4---5-4h5p4-0-5-4h5p-----------------------------------------|
A|---------3----------------------------------------------------------|
D|--------------------------------------------------------------------|

well have fun...listen to the song, once again purevolume.com/asecondchance  these guys 
my sexpot(im not gay its an expression) have fun

lyrics:

i'm watching your eyes move slowly
up and down my silhouette
and I wonder if you get it yet
this is the last time I crawl away on broken knees
and don't you wish it would be ok

promise me you'll forget me
you said as you walked away
don't hold on please let go of me
you make it so hard to leave

and I can't breath with out you here
for fear i'll catch your scent
and we both know how bad I get
I don't do well or dwell in change
and don't you know that
three small words could make this all ok

you promised me
you'll never forget me
you promised me
you'll never forget

you promised me

(off their website, ascrock.com)
Добавлено: 20.07.2012
Вам также может быть интересно:
Другие материалы по этой песне:
  • Аккорды и текст

Страница создана 20.07.2012
http://primanota.ru/a-second-chance/my-silhouette-chords.htm
Привет, Гость.
Предлагаем пройти революционный курс по гитаре.
Подарок от PrimaNota.Ru, забирай!