PrimaNota.ru - самый крупный в мире бесплатный архив песенных текстов, аккордов, табулатур и нот


A Rocket To The Moon - On A Lonely Night - аккорды и текст, таба, видео

Регистрация Запомнить меня
Войти через:  Facebook Google Twitter Vk Yandex Mail.ru

A Rocket To The Moon - On A Lonely Night - аккорды и текст, таба, видео

Печатать
Просмотров: 131
On A Lonely Night
A Rocket To The Moon
Twitter:
http://twitter.com/CamilleLacsam

If you want to listen to my covers:
http://soundcloud.com/camille-lacsam

"I was sixteen, met you out in Ohio"
e|-----------------------------------------0-----------------------|
B|-----3-------3--------3-------3--------2---2---2--------3--------|
G|---0---0----0---0---0---0---0--------0-------3------2h4---4-2-0--|
D|-/5-------4-------2-------0--------2--------------0--------------|
A|--------------------------------3--------------------------------|
E|-----------------------------------------------------------------|


"You were only fifteen, living life by the mile"
e|---------------------------------------------------------0-0-0---|
B|-----3-------3-------3--------3-------1---------3----3~--3-3-3---|
G|---0---0---0---0---0---0----0-----------0---------0--2~--2-2-0---|
D|-/5-------4-------2-------0---------2---------2----------0-0-0---|
A|----------------------------------3---------3------------0-0-0---|
E|---------------------------------------------------------0-0-0---|

VERSE 1:
G       Dsus4     Em7         Dsus4          Cadd9   Dsus4
We laid under the stars, fell asleep in your backyard
                   G                   Dsus4
You said you could fly but you'd never need to
            Cadd9                  Dsus4
'Cause with us you never tried too hard, and you never will
Cadd9    G         Em7      Dsus4
On a lonely night, you will see
Em7           Cadd9        Dsus4
You're everything to me (You've got anything)

CHORUS:
Cadd9    G        Em7     Dsus4
On a lonely night oh, the truth is
Em7   Dsus4    Cadd9     Dsus4
Every night is lonely without you,
Em7   Dsus4    Cadd9     Dsus4       G
Every night is lonely without you here

VERSE 2:
We are older now
And you came back to Ohio
You whispered something to me
I haven't heard in a while
I wish I could lie
And just tell you I'm fine
You wouldn't believe me if you tried
If I listen to our song
I'll be up all night

CHORUS:
Cadd9    G        Em7     Dsus4
On a lonely night oh, the truth is
Em7   Dsus4    Cadd9     Dsus4
Every night is lonely without you,
Em7   Dsus4    Cadd9     Dsus4       G
Every night is lonely without you here

BRIDGE:
Am        D
It's been forever
    G      D         Em7
But lately it's been hard
             Am                 D
Like when we took your parents' car
          G       D      Em
And drove forever in the dark
C
I'd give it all away if I could
D                             G  Cadd9 Dsus4
See you once again and have a summer love
C       Em              D
Growing close and never grow up

CHORUS:
Cadd9    G        Em7     Dsus4
On a lonely night oh, the truth is
Em7   Dsus4    Cadd9     Dsus4
Every night is lonely without you,
Em7   Dsus4    Cadd9     Dsus4       G
Every night is lonely without you here

    Em7   Dsus4       Em7        Dsus4   G
And every guy will be lonely without you there.
Добавлено: 02.12.2013
Другие материалы по этой песне:
  • Аккорды и текст

Страница создана 29.04.2012
http://primanota.ru/a-rocket-to-the-moon/on-a-lonely-night-chords.htm
Привет, Гость.
Предлагаем пройти революционный курс по гитаре.
Подарок от PrimaNota.Ru, забирай!