PrimaNota.ru - самый крупный в мире бесплатный архив песенных текстов, аккордов, табулатур и нот


A R Rahman - Chinna Chinna Asai - бас-таба, видео

Регистрация Запомнить меня
Войти через:  Facebook Google Twitter Vk Yandex Mail.ru

A R Rahman - Chinna Chinna Asai - бас-таба, видео

Печатать
Просмотров: 156
-------------------------------------------------------------------------------
                             Chinna Chinna Asai - Roja-  A.R. Rahman
-------------------------------------------------------------------------------
Tabbed by: Varghese Cherian
E-mail: thisisvarghese@gmail.com

Tuning:Dropped D

Intro  first 4 bars nothing then

G|-------------------|-----------------14|-------------------|-------------------|
D|-------------------|-------------------|-------------------|-------------------|
A|-------------------|-------------------|-------------------|-------------------|
D|7/12-12---7/12-12--|7/12-12---7/12-12--|7/12-12---7/12-12--|7/12-12---7/12-12--|

G|-------------------|-----------------14|-------------------|-------------------|
D|-------------------|-------------------|-------------------|-------------------|
A|-------------------|-------------------|-------------------|-------------------|
D|7/12-12---7/12-12--|7/12-12---7/12-12--|7/12-12---7/12-12--|7/12-12---7/12-12--|Chinnna Chinna

  asai     siragiikum asai     MuthuMuthu asai   Mudinthuvaithasai
G|-------------------|-------------------|-------------------|-------------------|
D|-------------------|-------------------|-------------------|-------------------|
A|-------555---------|-------555---------|-------555---------|-------555---------|
D|0-0---0---0--------|0-0---0---0--------|0-0---0---0--------|0-0---0---0--------|

  venilavu thota   Muthamida Aasai  EnnaiIntha Bhoomi Sutrivara Aasai   
G|----------------|----------------|----------------|-------------|
D|----------------|----2-----------|----------------|-------------|
A|----------2-5-2-|0-3---3-0-3-5-3-|--2-5-2---7-5-2-|5--5--5--5--5|
D|5-4-2-4-5-------|----------------|5-------5-------|-------------|Chinnna Chinna

  asai     siragiikum asai     MuthuMuthu asai   Mudinthuvaithasai
G|-------------------|-------------------|-------------------|-------------------|
D|-------------------|-------------------|-------------------|-------------------|
A|-------555---------|-------555---------|-------555---------|-------555---------|
D|0-0---0---0--------|0-0---0---0--------|0-0---0---0--------|0-0---0---0--------|

  venilavu thota   Muthamida Aasai  EnnaiIntha Bhoomi Sutrivara Aasai   
G|----------------|----------------|----------------|----------------|
D|----------------|----2-----------|----------------|----------------|
A|----------2-5-2-|0-3---3-0-3-5-3-|--2-5-2---7-5-2-|5--5--5--5--5|
D|5-4-2-4-5-------|----------------|5-------5-------|----------------|Chinnna Chinna


  asai     siragiikum asai                folk violin bridge for 6 bars withut bass
G|-------------------|-------------------|-------------------|-------------------|
D|-------------------|-------------------|-------------------|-------------------|
A|-------555---------|-------------------|-------------------|-------------------|
D|0-0---0---0--------|0-0----------------|-------------------|-------------------|


bass cuts into bridge
G|-------------------|-------------------|-------------------|-------------------|
D|-------------------|-------------------|-------------------|-------------------|
A|-------------------|-------------------|-------------------|-------------------|
D|2////////7---------|2////////7---------|2////////7---------|-------------------|


      Malligai               Maarivida           Thendralai         Maalaiyida Aasai
        Poovaai                     Aasai               Kandu
G|-------------------|-------------------|-------------------|-------------------|
D|0-0----------------|---0--22-----------|4h2p0--0-0---------|---0--22-----------|
A|-------------------|0h2-h2-------------|-----h2------------|02-2---------------|
D|-------------------|-------------------|-------------------|-------------------|



Heres the  kicker-Rahman put in an extra bar here before continuing on 4/4 .
I always  thought there was something strange while playing this section.Only when I tabbed I  realized.


          Maegangalai 
G|-------------------| 
D|4h2p0--0-0--0-0-0-0|
A|-----h2------------|
D|-------------------|



   Ellaam,            Thottuvida Sogangalai    Vittuvida Aasai
                         Aasai          Ellaam  
G|---------------|---------------|---------------|---------------|
D|---------------|---------------|---------------|---------------|
A|---------------|--------5-5-5-5|---------------|--------5-5-5-5| 
D|5-5-5-5-5-5-5-5|7-7-7-7--------|5-5-5-5-5-5-5-5|7-7-7-7--------|



Kaarkuzhalil Ulagai, Kattivida Aasai    Chinna Chinna
G|---------------|---------------| 
D|---------------|---------------|
A|---------------|5-5-5-4-5------| 
D|5-5-5-5-7-7-7-7|---------------|


  asai     siragiikum asai     MuthuMuthu asai   Mudinthuvaithasai
G|-------------------|-------------------|-------------------|-------------------|
D|-------------------|-------------------|-------------------|-------------------|
A|-------555---------|-------555---------|-------555---------|-------555---------|
D|0-0---0---0--------|0-0---0---0--------|0-0---0---0--------|0-0---0---0--------|

  venilavu thota   Muthamida Aasai  EnnaiIntha Bhoomi Sutrivara Aasai   
G|----------------|----------------|----------------|-------------|
D|----------------|----2-----------|----------------|-------------|
A|----------2-5-2-|0-3---3-0-3-5-3-|--2-5-2---7-5-2-|5--5--5--5--5|
D|5-4-2-4-5-------|----------------|5-------5-------|-------------|Chinnna Chinna


 asai     siragiikum asai     MuthuMuthu asai   Mudinthuvaithasai
G|-------------------|-------------------|-------------------|-------------------|
D|-------------------|-------------------|-------------------|-------------------|
A|-------555---------|-------555---------|-------555---------|-------555---------|
D|0-0---0---0--------|0-0---0---0--------|0-0---0---0--------|0-0---0---0--------|
 

6 bars of rahman signature interludes
Then steady bass for 8 bars like so
G|-------------------|----------------|----------------|----------------|
D|-------------------|----------------|----------------|----------------|
A|17\5-5-5-5-5-5-5-5-|5-5-5-5-5-5-5-5-|5-5-5-5-5-5-5-5-|5-5-5-5-5-5-5-5-|
D|-------------------|----------------|----------------|----------------|

G|----------------|----------------|----------------|----------------|
D|----------------|----------------|----------------|----------------|
A|5-5-5-5-5-5-5-5-|5-5-5-5-5-5-5-5-|5-5-5-5-5-5-5-5-|5-5-5-5-5-5-5-5-|
D|----------------|----------------|----------------|----------------|

Rest as above-enjoi

Saettru Vayalaadi, Naatru Neda Aasai
Meen Pidithu Meendum, Aatril Vida Aasai
Vaanavillai Kønjam, Uduthikølla Aasai
Panithulikkul Naanum, Paduthukkølla Aasai
Chithirathu Maelae, Šaelai Katta Aasai

Chinna Chinna Aasai Širagadikum Aasai
Muthu Muthu Aasai Mudinthuvaitha Aasai
Vennilavu Thøttu Muthamida Aasai
Ènnai Intha Bhøømi Šutrivara Aasai

Chinna Chinna Aasai Širagadikum Aasai
Muthu Muthu Aasai Mudinthuvaitha Aasai



| /  slide up
| \  slide down
| h  hammer-on
| p  pull-off
| ~  vibrato
| +  harmonic
| x  Mute note
===============================================================================
Добавлено: 20.08.2015
Другие материалы по этой песне:
  • Аккорды и текст

Страница создана 20.08.2015
http://primanota.ru/a-r-rahman/chinna-chinna-asai-chords.htm
Привет, Гость.
Предлагаем пройти революционный курс по гитаре.
Подарок от PrimaNota.Ru, забирай!