PrimaNota.ru - самый крупный в мире бесплатный архив песенных текстов, аккордов, табулатур и нот


A Plea For Purging - Sick Silent America - таба, видео

Регистрация Запомнить меня
Войти через:  Facebook Google Twitter Vk Yandex Mail.ru

A Plea For Purging - Sick Silent America - таба, видео

Печатать
Просмотров: 96
-------------------------------------------------------------------------------
                             Sick Silent America - A Plea For Purging
-------------------------------------------------------------------------------
Only tabbing out one guitar since the rest should be pretty easy to figure out.

Tuning: Drop G#

e|---------------------------------------------------------------------------|
B|---------------------------------------------------------------------------|
G|---------------------------------------------------------------------------|
D|---------------------------------------------------------------------------|
A|---7-7-7-7----8-8-8-8------------------------------------------------------|
E|-0-8-8-8-8--0-9-9-9-9------------------------------------------------------|

e|---------------------------------------------------------------------------|
B|---------------------------------------------------------------------------|
G|---------------------------------------------------------------------------|
D|---------5-----------6-----------------------------------------------------| x3
A|---5-------6-5---------6-5---2-2-------------------------------------------|
E|-0---6-5-------6-5-4-------6-----1-1---------------------------------------|

e|---------------------------------------------------------------------------|
B|---------------------------------------------------------------------------|
G|---------------------------------------------------------------------------|
D|---------------------------------------------------------------------------|
A|-----7-7-7-----7-7-7-----7-7-7-7-7-7-7-------------------------------------|
E|-0-0-8-8-8-0-0-8-8-8-0-0-8-8-8-8-8-8-8-------------------------------------|
                                                                   
e|-----------------------------------|---------------------------------------|
B|-----------------------------------|---------------------------------------|
G|-----------------------------------}x3-------------------------------------|
D|-----------------------------------|---------------------------------------|
A|-7-7-----7-7-----2-2-----2-2-------|-7-7-----7-7-----2-2-----2---2b--------|
E|-----8-8-----8-8-----1-1-----1-1---|-----8-8-----8-8-----1-1---1-----------|

e|---------------------------------------------------------------------------|
B|---------------------------------------------------------------------------|
G|---------------------------------------------------------------------------|
D|---------------------------------------------------------------------------|
A|-0-0-0--0--0-0-0--0--0-0-0--0--0-0-0--0--0-0-0--0--0-0-0--0--0-0-0--0------|
E|-1-1-1--1--1-1-1--1--1-1-1--1--1-1-1--1--1-1-1--1--1-1-1--1--1-1-1--1------|

e|---------------------------------------------------------------------------|
B|---------------------------------------------------------------------------|
G|---------------------------------------------------------------------------|
D|---------------------------------------------------------------------------|
A|-0-0-0--0--0-0-0--0--0-0-0------------------------------2-2----------------|
E|-1-1-1--1--1-1-1--1--1-1-1--0--0-0--0--00-00-0--0--0--0-----1-1------------|

e|---------------------------------------------------------------------------|
B|---------------------------------------------------------------------------|
G|---------------------------------------------------------------------------|
D|---------------------------------------------------------------------------|
A|------------------------2-----1-----------------------2-2------------------|
E|-00-00-0--0-0-0--0-0-0----0-1----00-00--00--0--00--0------1-1--------------|

e|-/12-----\5-----/10------\6------------------------------------------------|
B|---------------------------------------------------------------------------|
G|---------------------------------------------------------------------------|
D|---------------------------------------------------------------------------|
A|---------------------------------------------------------------------------|
E|---------------------------------------------------------------------------|

e|---------------------------------------------------------------------------|
B|---------------------------------------------------------------------------|
G|---------------------------------------------------------------------------|
D|---------------------------------------------------------------------------|
A|---7-7-7-7---8-8-8-8-------------------------------------------------------|
E|-0-8-8-8-8-0-9-9-9-9-------------------------------------------------------|

e|---------------------------------------------------------------------------|
B|---------------------------------------------------------------------------|
G|---------------------------------------------------------------------------|
D|---------5-----------6-----------------------------------------------------| x3
A|---5-------6-5---------6-5---2-2-------------------------------------------|
E|-0---6-5-------6-5-4-------6-----1-1---------------------------------------|

e|---------------------------------------------------------------------------|
B|---------------------------------------------------------------------------|
G|---------------------------------------------------------------------------|
D|---------------------------------------------------------------------------|
A|-----7-7-7-----7-7-7-----7-7-7-7-7-7-7-----7-7-7-----7-7-7--0-0-0-0--------|
E|-0-0-8-8-8-0-0-8-8-8-0-0-8-8-8-8-8-8-8-0-0-8-8-8-0-0-8-8-8--1-1-1-1--------|

e|-----------------|--------------------|------------------------------------|
B|-----------------|--------------------|------------------------------------|
G|-----------------}x4------------------}x3----------------------------------|
D|---------4-------|-----------2--------|------------------------------------|
A|-5---------6-5---|---2---------3-2----|-----2----------4-4-4---3-3-3-------|
E|---6-5-4-------6-|-----3-2-1-------3b-|-------3-2-1-0--5-5-5-0-4-4-4-------|
                                     +

e|---------------------------------------------------------------------------|
B|---------------------------------------------------------------------------|
G|---------------------------------------------------------------------------|
D|---------------------------------------------------------------------------|
A|-0-0-0-0--0-0-0--0--0--0-0-0-0--0--0-0-0-0--0--0--0-0-0-0--0--0-0-0--0--0--|
E|-0-0-0-0--0-0-0--0--0--0-0-0-0--0--0-0-0-0--0--0--0-0-0-0--0--0-0-0--0--0--|

e|-----------------|------------------------|--------------------------------|
B|-----------------|------------------------|--------------------------------|
G|-----------------|------------------------}x3------------------------------|
D|-----------------|------------------------|--------------------------------|
A|---7-7-7---8-8-8-|-0-0--1--0-0--1--0-0--1-|-0-0--1-1--0--1--0--1-0-1-------|
E|-0-8-8-8-0-9-9-9-|-0-0--1--0-0--1--0-0--1-|-0-0--1-1--0--1--0--1-0-1-------|

e|---------------------------------------------------------------------------|
B|---------------------------------------------------------------------------|
G|---------------------------------------------------------------------------|
D|----------------------------------------1br--------------------------------|
A|-0-0-0-------0-0-0-----0-0-0-----0-0-0-------0-0-0-----0-0-0-----0-0-0-----|
E|-0-0-0--1br--0-0-0--0--0-0-0--0--0-0-0-------0-0-0--0--0-0-0--0--0-0-0--0--|

e|---------------------------------------------------------------------------|
B|---------------------------------------------------------------------------|
G|---------------------------------------------------------------------------|
D|---------------------------------------------------------------------------|
A|-0-0-0-----0-0-0-----0-------------5---------------------------------------|
E|-0-0-0--0--0-0-0--0--0---------------6-5-----------------------------------|

e|---------------------------------------------------------------------------|
B|---------------------------------------------------------------------------|
G|---------------------------------------------------------------------------|
D|---------------------------------------------------------------------------|
A|-0-0-0--0--0-0-0--0--0-0-0--0--0-0-0--0--0-0-0--0--0-0-0--0--0-0-0--0------|
E|-1-1-1--1--1-1-1--1--1-1-1--1--1-1-1--1--1-1-1--1--1-1-1--1--1-1-1--1------|

e|---------------------------------------------------------------------------|
B|---------------------------------------------------------------------------|
G|---------------------------------------------------------------------------|
D|---------------------------------------------------------------------------|
A|-0-0-0--0--0-0-0--0--0-0-0------------------------------2-2----------------|
E|-1-1-1--1--1-1-1--1--1-1-1--0--0-0--0--00-00-0--0--0--0-----1-1------------|

e|---------------------------------------------------------------------------|
B|---------------------------------------------------------------------------|
G|---------------------------------------------------------------------------|
D|---------------------------------------------------------------------------|
A|------------------------2-----1-----------------------2-2------------------|
E|-00-00-0--0-0-0--0-0-0----0-1----00-00--00--0--00--0------1-1--------------|

e|-/12-----\5-----/10------\6------------------------------------------------|
B|---------------------------------------------------------------------------|
G|---------------------------------------------------------------------------|
D|---------------------------------------------------------------------------|
A|---------------------------------------------------------------------------|
E|---------------------------------------------------------------------------|

e|-------------------|-------------------------------------------------------|
B|-------------------|-------------------------------------------------------|
G|-------------------}x7-----------------------------------------------------|
D|---------2---------|-----------------------0-------------------------------|
A|-2---------3-2-----|----7-7-7-7---8-8-8-8--0-------------------------------|
E|---4-3-2-------3b--|--0-8-8-8-8-0-9-9-9-9--0-------------------------------|
                 +

************************************

| /   slide up
| \   slide down
| h   hammer-on
| p   pull-off
| ~   vibrato
| +   harmonic
| x   Mute note
| b   Bend
| pb  Pre-bend
| br  Bend release
| pbr Pre-bend release 
| brb Bend release bend 

************************************
Добавлено: 22.06.2013
Другие материалы по этой песне:
  • Аккорды и текст

Страница создана 22.06.2013
http://primanota.ru/a-plea-for-purging/sick-silent-america-chords.htm
Привет, Гость.
Предлагаем пройти революционный курс по гитаре.
Подарок от PrimaNota.Ru, забирай!