PrimaNota.ru - самый крупный в мире бесплатный архив песенных текстов, аккордов, табулатур и нот


A Plastic Rose - Garavogue - таба, видео

Регистрация Запомнить меня
Войти через:  Facebook Google Twitter Vk Yandex Mail.ru

A Plastic Rose - Garavogue - таба, видео

Печатать
Просмотров: 68
Уроки эстрадного вокала в Санкт-Петербурге
A Plastic Rose - Garavogue 
A Flickering Light of an Inner War (2015) 


May be missing something in the A chord but it sounds ok for now.

Tabbed by: James



Guitar 1

e|--17/16----9/12----17/16----9/4---|
B|----------------------------------|
G|----------------------------------|
D|----------------------------------|
A|----------------------------------|
E|----------------------------------|


Guitar 2

e|---------------------|
B|----2-----0---2------|
G|------2-----2---2----|
D|--------2------------| x7
A|--0------------------|
E|---------------------|



e|---------------------|
B|----2-----0---0h2p0--|
G|------2-----2-------2|
D|--------2------------| x1
A|--0------------------|
E|---------------------|
Добавлено: 06.12.2015
Другие материалы по этой песне:
  • Аккорды и текст

Страница создана 06.12.2015
http://primanota.ru/a-plastic-rose/garavogue-chords.htm
Привет, Гость.
Предлагаем пройти революционный курс по гитаре.
Подарок от PrimaNota.Ru, забирай!