PrimaNota.ru - самый крупный в мире бесплатный архив песенных текстов, аккордов, табулатур и нот


A Place To Bury Strangers - Smile When You Smile - бас-таба, видео

Регистрация Запомнить меня
Войти через:  Facebook Google Twitter Vk Yandex Mail.ru

A Place To Bury Strangers - Smile When You Smile - бас-таба, видео

Печатать
Просмотров: 207
Уроки эстрадного вокала в Санкт-Петербурге
----------------------------------------------------------------------------------------------------------------
                             Smile When You Smile - A Place To Bury Strangers
----------------------------------------------------------------------------------------------------------------
Tabbed by: AJoos
E-mail: arminjoos@yahoo.de

Tuning: Standard EADG

Main Riff

G|---------------------------------------------------------------------------|
D|-5--------9-9--------5-5--------0--0-0-5-5-5-7-7---------------------------|
A|---7--7-7-----7--7-7-----7--7-7--------------------------------------------| 
E|---------------------------------------------------------------------------|

Repeat 4 times at the start.

Verse

G|-------------------------------------------------------------------------------------------------|
D|-------------------------------------------------------------------------------------------------|
A|-----------------------------------------------------------------2-2-2-2-2-2-2-2-2-2-2-2-2-2-2-2-|
E|-0-0-0-0-0-0-0-0-0-0-0-0-0-0-0-0-2-2-2-2-2-2-2-2-2-2-2-2-2-2-2-2---------------------------------|

G|-------------------------------------------------------------------------------------------------|
D|-0-0-0-0-0-0-0-0-0-0-0-0-0-0-0-0-2-2-2-2-2-2-2-2-2-2-2-2-2-2-2-2-4-4-4-4-4-4-4-4-4-4-4-4-4-4-4-4-|
A|-------------------------------------------------------------------------------------------------|
E|-------------------------------------------------------------------------------------------------|

G|-4-4-4-4-4-4-4-4-4-4-4-4-4-4-4-4-2-2-2-2-2-2-2-2-2-2-2-2-2-2-2-2---------------------------------|
D|-------------------------------------------------------------------------------------------------|
A|-------------------------------------------------------------------------------------------------|
E|-------------------------------------------------------------------------------------------------|

G|---------------------------------------------------------------------------|
D|-----------------------5-5-5-5-----------------------5-5-5-5----------------|
A|-3--3--3-3-3-3-3-3-3-3---------5--5--5-5-5-5-5-5-5-5------------------------|
E|---------------------------------------------------------------------------|

G|---------------------------------------------------------------------------|
D|-----------------------5-5-5-5---------------5-5-5-7-7-7-9-9---------------|
A|-3--3--3-3-3-3-3-3-3-3---------5--5--5-5-5-5-------------------------------|
E|---------------------------------------------------------------------------|

Bass pauses then until the Main Riff kicks in again and repeats 4 times like at the start.

Another verse follows with another bass pause after it.


Main riff is repeated 6 times after the pause and this bass solo is played:

G|--------------------------------------------------------------------------------|
D|--------------------------------------------------------------------------------|
A|-/5-p7-7-7-5-p7-7--5-p7-7-7-5-p7-7-7-5-p7-7-7-5-p7-7-7-10--10-10-10-10-10-10-10-|
E|--------------------------------------------------------------------------------|

G|-------------------------------------------------------------------------------|
D|-----------------------------------------------------5-5-4---------------------|
A|-5-p7-7-7-5-p7-7-5-p7-7-7-5-p7-7-7-5-p7-7-7-5-p7-7-7-------7-5-7-5-------------|
E|-------------------------------------------------------------------7-5---------|

Ater the solo this transition is played 2 times until the Main Riff resumes and continues until the end.

G|-------------------------------------------------------------------------------|
D|--------------------------------------5--5-5-5-5--5----------------------------|
A|-7--7--7--7-7--7-7--7--7--7-7-7--7--7------------------------------------------|
E|-------------------------------------------------------------------------------|

G|--------------------------------------7--7-7-----------------------------------|
D|---------------------------------------------7-7-5-5-5-------------------------|
A|-7--7--7--7-7--7-7--7--7--7-7-7--7--7------------------------------------------|
E|-------------------------------------------------------------------------------|

Slight rythmic variations occur throughout all parts, but the notes stay the same.



| /  slide up
| \  slide down
| h  hammer-on
| p  pull-off
| ~  vibrato
| +  harmonic
| x  Mute note
===============================================================================
Добавлено: 22.06.2015
Вам также может быть интересно:
Другие материалы по этой песне:
  • Аккорды и текст

Страница создана 22.06.2015
http://primanota.ru/a-place-to-bury-strangers/smile-when-you-smile-chords.htm
Привет, Гость.
Предлагаем пройти революционный курс по гитаре.
Подарок от PrimaNota.Ru, забирай!