PrimaNota.ru - самый крупный в мире бесплатный архив песенных текстов, аккордов, табулатур и нот


A Perfect Murder - Time Changes Nothing - таба, видео

Регистрация Запомнить меня
Войти через:  Facebook Google Twitter Vk Yandex Mail.ru

A Perfect Murder - Time Changes Nothing - таба, видео

Печатать
Просмотров: 157
Уроки эстрадного вокала в Санкт-Петербурге
               A PERFECT MURDER - TIME CHANGES NOTHING

Tabbed by Domi166
figured out in 45mins, may something is wrong
Tuning: D G C F A D (low to high)

. = palm mute
/ = slide
h = hammer on/off


  main clean riff       
|----------------|-----------------------|
|----------------|-----------------------|
|----------------|-----------------------|
|-----4-----4----|------9------7---7-----|
|---2-----2------|----7------7-----------|
|-0-----3-----2--|--0------0------0------|

  varianted clean riff
|--------------------------|-----------------------|
|--------------------------|-----------------------|
|--------------------------|-----------------9-----|
|-----4-----4--------------|-----9-----7--7---9----|
|---2-----2----------------|---7-----7---------7---|
|-0-----3-----2--3-3-2-3-2-|-0-----0-----0------7--|

  1st distortion riff
|------------------------------------|
|------------------------------------|
|------------------------------------|
|------------------------------------|
|------------------------------------|
|--2---0-2-3---5---5-3-2--0-3-2------|

  clean riff before the heavy distortion
|----------------|-----------------------|
|----------------|-----------------------|
|----------------|-----------------------|
|-----4-----4----|-----------------------|
|---2-----2------|-----------------------|
|-0-----3-----2--|--/8-8-7--7h8h7--------|

|----------------|-----------------------|
|----------------|-----------------------|
|----------------|-----------------------|
|-----4-----4----|-----------------------|
|---2-----2------|-----------------------|
|-0-----3-----2--|--/8-8-7--7-8-7-10-7---|

Kicking ass disto  (It's difficult to get the right rythm, but I check this 
|------------------------------------|  riff the most time of the 45mins
|------------------------------------|  and I am sure that's right!
|------------------------------------|
|--------2-3-2-----------------------|
|-------------------------2-3-2------|
|-5-0-3--------3----0-3-5-------3----|


|------------------------------------|
|------------------------------------|
|------------------------------------|
|---------3-2-0---0-2-3-5------------|
|-------------------------3---2------|
|-5-0-3-5----------------------------|

riff after
|--------------------|
|--------------------|
|--------------------|
|-2-2-2--------------|
|-0-0-0----2--3-3-3--|
|----------0--1-1-1--|

|------------------------------|
|------------------------------|
|------------------------------|
|-2-2-2------------------------|
|-0-0-0------3-3-3-------------|
|------------1-1-1--3-3-3-3-3-3|

then return to the "kicking ass" riffs and repeat to fade out!





Добавлено: 01.05.2012
Вам также может быть интересно:
Другие материалы по этой песне:
  • Аккорды и текст

Страница создана 01.05.2012
http://primanota.ru/a-perfect-murder/time-changes-nothing-chords.htm
Привет, Гость.
Предлагаем пройти революционный курс по гитаре.
Подарок от PrimaNota.Ru, забирай!