PrimaNota.ru - самый крупный в мире бесплатный архив песенных текстов, аккордов, табулатур и нот


А-мега - Новый год (ft. Блестящие) - аккорды и текст, видео

Регистрация Запомнить меня
Войти через:  Facebook Google Twitter Vk Yandex Mail.ru

А-мега - Новый год (ft. Блестящие) - аккорды и текст, видео

Печатать
Просмотров: 207
Уроки эстрадного вокала в Санкт-Петербурге
Новый год (ft. Блестящие)
А-мега
Вступление:
Am Am/F# Dm/B Eadd13- E7 - 2p.
 
 Am  Am/F# Dm/B      Eadd13-E7
Налегке старый уходит год, 
  Am Am/F# Dm/B       Eadd13- E7
Вдалеке след его дней мелькнёт, 
Am  Am/F# Dm/B       Eadd13- E7
За него бросит снежинок горсть ветер, 
Am Am/g Am/F# Dm/B        Eadd13- E7
  И вот-вот Новый наступит год. 

       Am       Dm
Новый год, он родился на свет, 
       Am        Dm/B     E
Новый год среди звёзд и планет, 
     Am       Am/F#
Этот год будет лучше, чем тот, 
       Dm/B  Eadd13-      Am
Что он нам принесёт, Новый год. 

Проигрыш: Am Am/F# Dm/B Eadd13-:E7 - 2p.

Зажигай в окнах своих огни 
И давай старым друзьям звонить, 
Может быть, снова как миг мелькнёт время, 
И вот-вот Новый наступит год. 

Новый год, он родился на свет, 
Новый год среди звёзд и планет, 
Этот год будет лучше, чем тот, 
Он без нас не пройдёт, Новый год. 

Проигрыш: 
  Am Am/F# Dm/B    Eadd13- E7 
E------12---------10-8-7-------------------
H-13------10------------10-12-10------9-
G---------------------------------------------
D---------------------------------------------
A---------------------------------------------
E---------------------------------------------
  Am Am/F# Dm/B       Eadd13- E7
E------------17----10-12-13-12-10-12-------
H------17-----------------------------------------
G-17----------------------------------------------
D--------------------------------------------------
A--------------------------------------------------
E--------------------------------------------------

Новый год, он родился на свет, 
Новый год среди звёзд и планет, 
Этот год будет лучше, чем тот, 
Что он нам принесёт, Новый год. 

Новый год, он родился на свет, 
Новый год среди звёзд и планет, 
Этот год будет лучше, чем тот, 
Он без нас не пройдёт, Новый год.

Заключение: Am Am/F# Dm/B Eadd13-:E7 - 2p Am
Добавлено: 30.07.2015
Другие материалы по этой песне:
  • Аккорды и текст

Страница создана 30.07.2015
http://primanota.ru/a-mega/novyi-god-ft-blestyashhie-chords.htm
Привет, Гость.
Предлагаем пройти революционный курс по гитаре.
Подарок от PrimaNota.Ru, забирай!