PrimaNota.ru - самый крупный в мире бесплатный архив песенных текстов, аккордов, табулатур и нот


A Love Ends Suicide - Skate Junction - таба, видео

Регистрация Запомнить меня
Войти через:  Facebook Google Twitter Vk Yandex Mail.ru

A Love Ends Suicide - Skate Junction - таба, видео

Печатать
Просмотров: 62
A LOVE ENDS SUICIDE
SKATE JUNCTION (ALBULM VERSION)
DADGBE

*=PALM MUTE


TABBED BY andherembrace

whole song is tabbed w/both parts


0:02
L
-----------------------------------------------------|
-----------------------------------------------------|
------------------1010101010101010101010101010101010-|
-------------------x-x-x-x-x-x-x-x-x-x-x-x-x-x-x-x-x-|
-0-----0-----------8-8-8-8-8-8-8-8-8-8-8-8-8-8-8-8-8-|
-0-----0---------------------------------------------|
R
-----------------------------------------------------|
-----------------------------------------------------|
-------------------7-7-7-7-7-7-7-7-7-7-7-7-7-7-7-7-7-|
-------------------x-x-x-x-x-x-x-x-x-x-x-x-x-x-x-x-x-|
-0-----0-----------5-5-5-5-5-5-5-5-5-5-5-5-5-5-5-5-5-|
-0-----0---------------------------------------------|

0:08
L
--------------------------------------|
--------------------------------------|
--12-1212121212121212-14-141414141414-|
---X--X-X-X-X-X-X-X-X--X--X-X-X-X-X-X-|
-/10-1010101010101010/12-121212121212-|
--------------------------------------|
R
--------------------------------------|
--------------------------------------|
--9--9-9-9-9-9-9-9-9-10-101010101010--|
--X--X-X-X-X-X-X-X-X-X--X-X-X-X-X-X---|
-/7--7-7-7-7-7-7-7-7/8--8-8-8-8-8-8---|
--------------------------------------|

0:10
L
--------------------------------------------------------------------|
-----------------^-------------------------------------------^------|
------10-12-12-10-12--10----------------10-12-12-14--12-12-10-12-12~|
---12---------------------12-10-12---12-----------------------------|
*-*--*--*-----------*---*-----------*--*--*-------------------------|
0-0--0--0-----------0---0-----------0--0--0-------------------------|
R
---------------------------------------------------------------|
---------------------------------------------------------------|
---------------------------------------------------------------|
*-*---------------------------*-*-*----------------------------|
0-0---------------------------0-0-0----------------------------|
0-0---------------------------0-0-0----------------------------|

0:15
L
----------------------------------------------------------|
----------------------------------------------------------|
------^----------^----------^----------^------------------|
-12-10-12---12-10-12---12-12-14---12-14-15--10\7-10/12-12-|
*--*-----*-*--*-----*-*--*-----*-*--*-----*---------------|
0--0-----0-0--0-----0-0--0-----0-0--0-----0---------------|
R
---------------------------------------------------------------|
---------------------------------------------------------------|
---------------------------------------------------------------|
---------------------------------------------------------------|
10---------------------5-------------------3-------------------|
10---------------------5-------------------3-------------------|

0:20
L
--------------------------------------------------------------------|
-------------------------------------------------------------^------|
------10-12-12-10-12--10----------------10-12-12-14--12-12-10-12-12~|
---12---------------------12-10-12---12-----------------------------|
*-*--*--*-----------*---*-----------*--*--*-------------------------|
0-0--0--0-----------0---0-----------0--0--0-------------------------|
R
--------------------------------------------------------------------|
-------------------------------------------------------------^------|
------14-15-15-14-15--14----------------14-15-15-17--15-15-14-15-15~|
---15---------------------15-14-15---15-----------------------------|
*-*--*--*-----------*---*-----------*--*--*-------------------------|
0-0--0--0-----------0---0-----------0--0--0-------------------------|

0:25
L
----------------------------------------------------------|
----------------------------------------------------------|
------^----------^----------^----------^------------------|
-12-10-12---12-10-12---12-12-14---12-14-15--10\7-10/12-12-|
*--*-----*-*--*-----*-*--*-----*-*--*-----*---------------|
0--0-----0-0--0-----0-0--0-----0-0--0-----0---------------|
R
----------------------------------------------------------|
----------------------------------------------------------|
------^----------^----------^----------^------------------|
-15-14-15---15-14-15---15-15-17---15-17-19--14\12-14/15-15|
*--*-----*-*--*-----*-*--*-----*-*--*-----*---------------|
0--0-----0-0--0-----0-0--0-----0-0--0-----0---------------|

0:30
L
-----------------------------------------------------------------|
-----------------------------------------------------------------|
-----------------------------------------------------------------|
---------^-------^-----^----------------^--------^------^------^-|
*-*-7-*-7-5-*-*-8-5-*-8-5-*-8--*-*-8-*-7-8-*-*-10-8-*-10-8-*-10-8|
0-0---0-----0-0-----0-----0----8-8---8-----8-8------8------8-----|
R
----------------------------------------------------------------|
----------------------------------------^--------^-----^-----^--|
---------^-------^-----^-----------2---0-2------3-2---3-2---3-2-|
----5---5-3-----7-3---7-3---7--*-*---*-----*-*------*-----*-----|
*-*---*-----*-*-----*-----*----1-1---1-----1-1------1-----1-----|
0-0---0-----0-0-----0-----0-------------------------------------|

0:33
L
---------------------------------------------------------------|
---------------------------------------------------------------|
----------^-------^-----^-----^------------------------------P-|
-*-*-7-*-7-5-*-*-5-3-*-5-3-*-5-3----------^-------^-----^----H-|
-3-3---3-----3-3-----3-----3-----*-*-8-*-7-8-*-*-7-5-*-8-5-*-7-|
---------------------------------5-5---5-----5-5-----5-----5---|
R
---------------------------------------------------------------|
----------^-------^-----^-----^--------------------------------|
-----5---5-3-----3-2---3-2---3-2----------^-------^-----^------|
-*-*---*-----*-*-----*-----*---------7---5-7-----5-3---7-3-----|
-3-3---3-----3-3-----3-----3-----*-*---*-----*-*-----*-----*-7-|
---------------------------------5-5---5-----5-5-----5-----5---|

0:38
L
-----------------------------------------------------------------|
-----------------------------------------------------------------|
-----------------------------------------------------------------|
---------^-------^-----^----------------^--------^------^------^-|
*-*-7-*-7-5-*-*-8-5-*-8-5-*-8--*-*-8-*-7-8-*-*-10-8-*-10-8-*-10-8|
0-0---0-----0-0-----0-----0----8-8---8-----8-8------8------8-----|
R
----------------------------------------------------------------|
----------------------------------------^--------^-----^-----^--|
---------^-------^-----^-----------2---0-2------3-2---3-2---3-2-|
----5---5-3-----7-3---7-3---7--*-*---*-----*-*------*-----*-----|
*-*---*-----*-*-----*-----*----1-1---1-----1-1------1-----1-----|
0-0---0-----0-0-----0-----0-------------------------------------|

0:42
L
---------------------------------------------------------------|
---------------------------------------------------------------|
----------^-------^-----^-----^------------------------------P-|
-*-*-7-*-7-5-*-*-5-3-*-5-3-*-5-3----------^-------^-----^----H-|
-3-3---3-----3-3-----3-----3-----*-*-8-*-7-8-*-*-7-5-*-8-5-*-7-|
---------------------------------5-5---5-----5-5-----5-----5---|
R
---------------------------------------------------------------|
----------^-------^-----^-----^--------------------------------|
-----5---5-3-----3-2---3-2---3-2----------^-------^-----^------|
-*-*---*-----*-*-----*-----*---------7---5-7-----5-3---7-3-----|
-3-3---3-----3-3-----3-----3-----*-*---*-----*-*-----*-----*-7-|
---------------------------------5-5---5-----5-5-----5-----5---|

0:47
L
-----------------------------|
-----------------------------|
-----------------------------|
-*-*-*-*------*-*-*-*--------|
-0-0-0-0------0-0-0-0-8-7----|
-0-0-0-0------0-0-0-0--------|

-----------------------------|
-----------------------------|
-----------------------------|
-*-*-*-*------*-*-*-*-7-5----|
-0-0-0-0------0-0-0-0--------|
-0-0-0-0------0-0-0-0--------|

0:49
L
-------------------------------------------------|
-------------------------------------------------|
-------------------------------------------------|
-------------------------------------------------|
555557755555577888888775555----101010101010887777|
---------------------------8888------------------|
L
-----------------------------------|
-----------------------------------|
-----------------------------------|
-----------------------------------|
---------121212121212101088887777--|
-10101010--------------------------|

R
-------------------------------------------------|
-------------------------------------------------|
-------------------------------------------------|
-------------------------------------------------|
///---------------------------///----------------|
-0-----------------------------8-----------------|
R
---------------------------------|
---------------------------------|
---------------------------------|
---------------------------------|
---///---------------------------|
----7----------------------------|

0:53
L
-------------------------------------------------|
-------------------------------------------------|
-------------------------------------------------|
-------------------------------------------------|
5555577555555778888887755558888101010101010887777|
-------------------------------------------------|
L
------------------------------------|
------------------------------------|
------------------------------------|
------------------------------------|
----------121212121212101088887777--|
-10101010---------------------------|
R
-----------------------------------------------------------|
-----------------------------------------------------------|
-----------------------------------------------------------|
-----------------------------------------------------------|
///--------------------------///---------------------------|
-0----------------------------3----------------------------|
R
----------------------------------|
----------------------------------|
----------------------------------|
----------------------------------|
------///---///-----///-///-------|
-------5-----3-------2---0--------|

0:58
L
-------------------------------------------------|
-------------------------------------------------|
-------------------------------------------------|
-------------------------------------------------|
555557755555577888888775555----101010101010887777|
---------------------------8888------------------|
L
-----------------------------------|
-----------------------------------|
-----------------------------------|
-----------------------------------|
---------121212121212101088887777--|
-10101010--------------------------|
R
------------------------------------------------|
------------------------------------------------|
------------------------------------------------|
------------------------------------------------|
8888881010888888101012121212121210108888--------|
----------------------------------------8888----|
R
----------------------------------------------------------------|
----------------------------------------------------------------|
----------------------------------------------------------------|
----------------------------------------------------------------|
----------------------------------------------------------------|
131313131313121210101010--------15151515151513131212121210101010|
------------------------10101010--------------------------------|

1:02
L
-------------------------------------------------|
-------------------------------------------------|
-------------------------------------------------|
-------------------------------------------------|
5555577555555778888887755558888101010101010887777|
-------------------------------------------------|
R
----------------------------------------|
----------------------------------------|
----------------------------------------|
----------------------------------------|
8888881010888888101012121212121210108888|
----------------------------------------|
R
----------------------------------|
----------------------------------|
----------------------------------|
----------------------------------|
-12121212131313131313121210101010-|
----------------------------------|

1:05
L
----------------------------------------------|
----------------------------------------------|
----------------------------------------------|
---5-------------------5---7---8---7---5---3--|
**---**-8-**-7-**-5-**---*---*---*---*---*----|
00---00---00---00---00---0---0---0---0---0----|
R
---------------------------------------------------|
---------------------------------------------------|
---------------------------------------------------|
---8---------------------8---10---12---10---8---7--|
**---**-12-**-10-**-8-**---*----*----*----*---*----|
00---00----00----00---00---0----0----0----0---0----|

1:09
L
-------------------------------------------------------------|
-------------------------------------------------------------|
-------------------------------------------------------------|
---------------------------------------------------------7---|
**-8-**-7-*-5-**-8-**-7-*-5-**-10-**-12-***-8-*-10-*-8-*-----|
00---00---0---00---00---0---88----88----887---7----7---7-----|
R
---------------------------------------------------------------|
---------------------------------------------------------------|
---------------------------------------------------------------|
-----------------------------------8----10-----7---8----7---10-|
**-12-**-10-*-8-**-12-**-10-*-8-**---**----***---*----*---*----|
00----00----0---00----00----0---88---88----887---7----7---7----|

1:13
L
-------------------------------------------------------------|
-------------------------------------------------------------|
-------------------------------------------------------------|
---------------------------------------------------------7---|
**-8-**-7-*-5-**-8-**-7-*-5-**-10-**-12-***-8-*-10-*-8-*-----|
00---00---0---00---00---0---88----88----887---7----7---7-----|
R
---------------------------------------------------------------|
---------------------------------------------------------------|
---------------------------------------------------------------|
-----------------------------------8----10-----7---8----7---10-|
**-12-**-10-*-8-**-12-**-10-*-8-**---**----***---*----*---*----|
00----00----0---00----00----0---88---88----887---7----7---7----|

1:18
L
----------------------------------------------------------|
----------------------------------------------------------|
----------------------------------------------------------|
-----------------5----------------------------------------|
**-5-**-7-*-8-**---**-8-*-7-**-10-**-8-*-7-**-8-**-7-*-5--|
00---00---0---00---00---0---88----88---8---77---77---7----|
R
---------------------------------------------------------------|
---------------------------------------------------------------|
---------------------------------------------------------------|
-------------------8---------------8---------------7-----------|
**-8-**-10-*-12-**---**-12-*-10-**---**-12-*-10-**---**-10-*-8-|
00---00----0----00---00----0----88---88----8----77---77----7---|

1:22
L
----------------------------------------------------------|
----------------------------------------------------------|
----------------------------------------------------------|
-----------------5-------------7--------------------------|
**-5-**-7-*-8-**---**-8-*-7-**---10-8-10-8-7-8-7-5-7-5-3--|
00---00---0---00---00---0---88----------------------------|
R
-----------------------------------------------------------------|
-----------------------------------------------------------------|
-----------------------------------------------------------------|
-------------------8---------------10-8----8---------------------|
**-8-**-10-*-12-**---**-12-*-10-**------12---12-10-12-10-8-10-8-7|
00---00----0----00---00----0----88-------------------------------|

1:27
L
---------------------------------------------------------|
---------------------------------------------------------|
---------------------------------------------------------|
--------------------------------------------------^------|
-*-*-*-*------*-*-*---------*-*-*-0--*-*-0-*-***-8-7-5---|
-0-0-0-0------0-0-0---------0-0-0-0--0-0-0-0-000---------|
R
---------------------------------------------------------|
---------------------------------------------------------|
--------------------------------------------------^------|
-------------------------------------------------7-5-----|
--------*-*-*------***-***--*-*-*-0--*-*-0-*-***-----8---|
--------0-0-0------000-000--0-0-0-0--0-0-0-0-000---------|

1:32
L
----------------------------------------------------------|
----------------------------------------------------------|
----------------------------------------------------------|
------------------------^---------------------------^-----|
-*-*-*-0--*-*-0-*-***-10-8-7-*-*-*-0--*-*-0-*-***-12-10-8-|
-0-0-0-0--0-0-0-0-000--------0-0-0-0--0-0-0-0-000---------|

---------------------------------------------------------|
---------------------------------------------------------|
-----------------------^----------------------------^----|
----------------------8-7-------------------------10-8-7-|
-*-*-*-0--*-*-0-*-***-----10-*-*-*-0--*-*-0-*-***--------|
-0-0-0-0--0-0-0-0-000--------0-0-0-0--0-0-0-0-000--------|

1:36
L
--------------------------|
--------------------------|
--------------------------|
///---///--///-///---^----|
-8-----7---8---10---8-7-5-|
--------------------------|
R
--------------------------|
--------------------------|
///---///--///-///--^-----|
-7-----5----7---8--7-5----|
-----------------------8--|
--------------------------|

1:39
L
--------------------------------------------------------|
--------------------------------------------------------|
--------------------------------------------------------|
----------------------^---------------------------^-----|
*-*-*-0--*-*-0-*-***-8-7-5-*-*-*-0--*-*-0-*-***-10-8-7--|
0-0-0-0--0-0-0-0-000-------0-0-0-0--0-0-0-0-000---------|
R
--------------------------------------------------------|
--------------------------------------------------------|
----------------------^--------------------------^------|
---------------------7-5------------------------8-7-----|
*-*-*-0--*-*-0-*-***-----8-*-*-*-0--*-*-0-*-***-----10--|
0-0-0-0--0-0-0-0-000-------0-0-0-0--0-0-0-0-000---------|

1:43
L
--------------------------------------------------------|
--------------------------------------------------------|
--------------------------------------------------------|
-----------------------^------///---///-///-----7-----5-|
*-*-*-0--*-*-0-*-***-12-10-8---8-----7---8--***---***---|
0-0-0-0--0-0-0-0-000------------------------000---000---|
R
---------------------------------------------------------|
---------------------------------------------------------|
-----------------------^----///---///--///---------------|
---------------------10-8-7--7-----5----7-------10-----8-|
*-*-*-0--*-*-0-*-***------------------------***----***---|
0-0-0-0--0-0-0-0-000------------------------000----000---|

1:48
L
------------------------------------------------------------|
------------------------------------------------------------|
------------------------------------------------------------|
-----^---^---^---^---^---^---^------^---^-----^---^---^-----|
***-5-0-7-0-8-0-5-0-7-0-8-0-7-0---10-0-8-0---8-0-7-0-5-7-5--|
000-----------------------------8----------7----------------|
R
---------------------------------------------------------------|
---------------------------------------------------------------|
---------------------------------------------------------------|
-----^----^----^---^----^----^----^----^----^----^----^---^----|
***-8-0-10-0-12-0-8-0-10-0-12-0-10-0-13-0-12-0-12-0-10-0-8-10-8|
000---------------------------------8---------7----------------|

1:52
L
------------------------------------------------------------|
------------------------------------------------------------|
------------------------------------------------------------|
-----^---^---^---^---^---^---^------^---^-----^---^---^-----|
***-5-0-7-0-8-0-5-0-7-0-8-0-7-0---10-0-8-0---8-0-7-0-5-7-5\3|
000-----------------------------8----------7----------------|
R
-----------------------------------------------------------------|
-----------------------------------------------------------------|
-----------------------------------------------------------------|
-----^----^----^---^----^----^----^----^----^----^----^---^------|
***-8-0-10-0-12-0-8-0-10-0-12-0-10-0-13-0-12-0-12-0-10-0-8-10-8\7|
000---------------------------------8---------7------------------|

1:56
L
---------------------------------------------------------------|
---------------------------------------------------------------|
---------------------------------------------------------------|
----^---^---^------^---^---^-------^---^---^------^---^---^----|
**-5-0-7-0-7-8-**-5-0-7-0-7-8-**-10-0-8-0-7-8-**-7-0-5-0-3-5---|
00-------------00-------------88--------------77---------------|
R
-----------------------------------------------------------------|
-----------------------------------------------------------------|
-----------------------------------------------------------------|
----^----^----^-----^----^----^------^----^----^-------^---^---^-|
**-8-0-10-0-10-12**8-0-10-0-10-12**13-0-12-0-10-12**-10-0-8-0-7-8|
00---------------00--------------88---------------77-------------|

2:01
L
-------------------------------------------------------|
-------------------------------------------------------|
-------------------------------------------------------|
----^---^---^------^---^---^---7-5---5-----------------|
**-5-0-7-0-7-8-**-5-0-7-0-7-8------8---8-7-8-7-5-7-5-3-|
00-------------00--------------------------------------|
R
-----------------------------------------------------------------|
-----------------------------------------------------------------|
-----------------------------------------------------------------|
----^----^----^-----^----^----^---10-8----8----------------------|
**-8-0-10-0-10-12**8-0-10-0-10-12------12---12-10-12-10-8-10-8-7-|
00---------------00----------------------------------------------|

2:06
L
-----------------------------------------------------------------|
-----------------------------------------------------------------|
-----------------------------------------------------------------|
-----------------------------------------------------------------|
*-*-*--------****---*-*-*----------*-*-*---------****------*-*-*-|
0-0-0--------0000---0-0-0----------8-8-8---------8888------8-8-8-|
R
-----------------------------------------------------------------|
-----------------------------------------------------------------|
-----------------------------------------------------------------|
----^----^----^-----^----^----^------^----^----^------^----^---^-|
**-8-0-10-0-10-12**8-0-10-0-10-12**13-0-12-0-10-12**-10-0-8-0-7-8|
00---------------00--------------88---------------77-------------|

2:10
L
---------------------------------------------------------------|
---------------------------------------------------------------|
---------------------------------------------------------------|
---------------------------------------------------------P-----|
*-*-*--------****---*-*-*--------*-*-*---------****------H-----|
7-7-7--------7777---7-7-7--------3-3-3---------3333------3-----|
R
-----------------------------------------------------------------|
-----------------------------------------------------------------|
-----------------------------------------------------------------|
----^----^----^-----^----^----^------^----^----^------^----^---^-|
**-8-0-10-0-10-12**8-0-10-0-10-12**13-0-12-0-10-12**-10-0-8-0-7-8|
00---------------00--------------88---------------77-------------|

2:14
L
-------------------------------------------------------|
-------------------------------------------------------|
--------------------------------------------------7-7--|
--------------------------------------------------X-X--|
-0-------------------------5----------------------5-3--|
-0-------------------------5---------------------------|
R
-------------------------------------------------------|
-------------------------------------------------------|
-----------------------------^---^---^---^---^---------|
---^---^---^-----^---^---^--5-0-3-0-2-0-3-0-2-0--^---^-|
5-5-0-7-0-3-5---5-0-7-0-3-5---------------------3-0-3-5|
-------------------------------------------------------|

2:19
L
-----------------------------------------------|
-----------------------------------------------|
---------------5-10101010101010-12121212-9999--|
---------------X--X-X-X-X-X-X-X--X-X-X-X-XXXX--|
---------------3-/8-8-8-8-8-8-8/10101010-7777--|
-----------------------------------------------|
R
--------------------------------------------------------|
--------------------------------------------------------|
-----------------------------^---^---^---^---^----------|
---^---^---^-----^---^---^--5-0-3-0-2-0-3-0-2-0--^---^--|
--5-0-7-0-3-5---5-0-7-0-3-5---------------------3-0-3-5-|
--------------------------------------------------------|

2:23
L
-----------------------------------------------------------|
-----------------------------------------------------------|
-----------------------------------------------------------|
----------------^-----5--------------------^------------^--|
**-5-*-7-*-8-*-7-8-**--*-8-7-*-55-7-*-8-*-7-8-**-12-*-10-8-|
00---0---0---0-----00--0-----0------0---0-----00----0------|
R
-----------------------------------------------------------------|
-----------------------------------------------------------------|
-----------------------------------------------------------------|
-----------------------------------------------------------------|
-0-0-0-0-0-0-0-0-0-0-0-0-0-0-0-0-10101010101010101010101010101010|
-0-0-0-0-0-0-0-0-0-0-0-0-0-0-0-0-10101010101010101010101010101010|

2:28
L
-------------------------------__------------------_-----------|
------------------------------/  \----------------/ \-----tr~--|
----------------------------12-13-12-10-----^---10-9-10-910----|
--------^---------^--------------------12-10-12----------------|
*12-*8-10-**12-*-8-10-**-12*-----------------------------------|
0---0-----00----------00---0-----------------------------------|
R
-----------------------------------------------------------------|
-----------------------------------------------------------------|
-7-7-7-7-7-7-7-7-7-7-7-7-7-7-7-7-9-9-9-9-9-9-9-9-9-9-9-9-9-9-9-9-|
-5-5-5-5-5-5-5-5-5-5-5-5-5-5-5-5-x-x-x-x-x-x-x-x-x-x-x-x-x-x-x-x-|
-5-5-5-5-5-5-5-5-5-5-5-5-5-5-5-5-7-7-7-7-7-7-7-7-7-7-7-7-7-7-7-7-|
-5-5-5-5-5-5-5-5-5-5-5-5-5-5-5-5---------------------------------|

2:32
L
-------------------------------------------------------------|
-------------------------------------------------------------|
-------------------------------------------------------------|
----------------^-----5----------------------^------------^--|
**-5-*-7-*-8-*-7-8-**--*-8-7-*-5-*-7-*-88-*-7-8-**-12-*-10-8-|
00---0---0---0-----00--0-----0---0---0----0-----00----0------|
R
-----------------------------------------------------------------|
-----------------------------------------------------------------|
-----------------------------------------------------------------|
-----------------------------------------------------------------|
-0-0-0-0-0-0-0-0-0-0-0-0-0-0-0-0-10101010101010101010101010101010|
-0-0-0-0-0-0-0-0-0-0-0-0-0-0-0-0-10101010101010101010101010101010|

2:37
L
-------------------------------__------------------_-------|
------------------------------/  \----------------/ \------|
----------------------------12-13-12-10-----^---10-9-10-12-|
--------^---------^--------------------12-10-12------------|
*12-*8-10-**12-*-8-10-**-12*-------------------------------|
0---0-----00----------00---0-------------------------------|
R
-----------------------------------------------------------------|
-----------------------------------------------------------------|
-7-7-7-7-7-7-7-7-7-7-7-7-7-7-7-7-9-9-9-9-9-9-9-9-9-9-9-9-9-9-9-9-|
-5-5-5-5-5-5-5-5-5-5-5-5-5-5-5-5-x-x-x-x-x-x-x-x-x-x-x-x-x-x-x-x-|
-5-5-5-5-5-5-5-5-5-5-5-5-5-5-5-5-7-7-7-7-7-7-7-7-7-7-7-7-7-7-7-7-|
-5-5-5-5-5-5-5-5-5-5-5-5-5-5-5-5---------------------------------|

2:41
L
---------------------------------------------------------------|
---------------------------------------------------------------|
101010101099-999-1414-141414-121212-12121212101010101099-9999--|
-x-x-xx-x-xx-xxx--X-X--X-X-X--X-X-X--X-X-X-X-x-x-xx-x-xx-xxxX--|
-8-8-88-8-77-777-1212-121212-101010-10101010-8-8-88-8-77-7777--|
---------------------------------------------------------------|
L
-----------------|
-----------------|
7-7-7777-14-1210-|
X-X-XXXX--X--X-X-|
5-5-5555-12-10-8-|
-----------------|
R
--------------------------------------------------------------------|
--------------------------------------------------------------------|
77-777-55-555101010101099-999-77-777-55-555-------------------------|
xx-xxx-xx-xxx-x-x-xx-x-xx-xxx-xx-xxx-xx-xxx---^---^---^---^---^---^-|
55-555-33-333/8-8-88-8-77-777-55-555-33-3335-5-0-7-0-3-5-5-0-7-0-3-5|
--------------------------------------------------------------------|

2:49
L
---------------------------------------------------------------|
---------------------------------------------------------------|
101010101099-999-1414-141414-171717-17171717101010101099-9999--|
-x-x-xx-x-xx-xxx--X-X--X-X-X--X-X-X--X-X-X-X-x-x-xx-x-xx-xxxX--|
-8-8-88-8-77-777-1212-121212-151515-15151515-8-8-88-8-77-7777--|
---------------------------------------------------------------|
R
--------------------------------------------|
--------------------------------------------|
77-777-55-555101010101099-999-77-777-55-555-|
xx-xxx-xx-xxx-x-x-xx-x-xx-xxx-xx-xxx-xx-xxx-|
55-555-33-333/8-8-88-8-77-777-55-555-33-333-|
--------------------------------------------|

2:56
L
-----------------------------|
-----------------------------|
-----------------------------|
-----------------------------|
-*-*-***-5-*-*-***-7-***-8\--|
-0-0-000---0-0-000---000-----|
R
-----------------------------|
-----------------------------|
-----------------------------|
-----------------------------|
-*-*-***-8-*-*-***-10-***-12-|
-0-0-000---0-0-000----000----|

3:00
L
---------------------------------------------------------------|
---------------------------------------------------------------|
-------------------------------------------------_-------------|
-------------------------------------------/\---/ \---/\---/\--|
------------------------------------------5750-81080-3530-7870-|
---------------------------------------------------------------|
R
--------------------------------------------------------------------|
--------------------------------------------------------------------|
---------------------------------------------__------__---------__--|
--------------------------------------------/  \----/  \---/\--/  \-|
****-*-****-*-****-*-************-*-****-*1012100-1213120-7870-81080|
0000-0-0000-0-0000-0-000000000000-0-0000-0--------------------------|

3:05
L
-------------------------------------------------------------------|
-------------------------------------------------------------------|
-------------------------------------------------------------------|
-------------------------------------------------------------------|
****-*-****-*-****-*-8888-7-****-*-****-*-****-*-1010101088887777-5|
0000-0-0000-0-0000-0--------0000-0-0000-0-0000-0-------------------|
R
-------------------------------------------------------------------|
-------------------------------------------------------------------|
-------------------------------------------------------------------|
----------------------------------------------------///-///-///-///|
****-*-****-*-****-*-12121212-10****-*-****-*-****-*-13--12--10--8-|
0000-0-0000-0-0000-0------------0000-0-0000-0-0000-0---------------|

3:11
L
-------------------------------------------------------------------|
-------------------------------------------------------------------|
-------------------------------------------------------_-----------|
-------------------------------------------------/\---/ \---/\--/\-|
****-*-****-*-****-*-8888-7****-*-****-*-****-*5750-81080-3530-7870|
0000-0-0000-0-0000-0-------0000-0-0000-0-0000-0--------------------|
R
--------------------------------|
--------------------------------|
--------------------------------|
--------------------------------|
****-*-****-*-****-*12121212-10-|
0000-0-0000-0-0000-0------------|
R
-------------------------------------------------|
-------------------------------------------------|
-------------------------__------__----------_---|
------------------------/  \----/  \---/\---/ \--|
-****-*-****-*-****-*-1012100-1213120-7870-81080-|
-0000-0-0000-0-0000-0----------------------------|


3:18
L
-------------------------------------------------------------------|
-------------------------------------------------------------------|
-------------------10101010-9-------------------10101010-999977775-|
--------------------X-X-X-X-X--------------------X-X-X-X-XXXXXXXXX-|
****-*-****-*-****-*8-8-8-8-7****-*-****-*-****-*8-8-8-8-777755553-|
0000-0-0000-0-0000-0---------0000-0-0000-0-0000-0------------------|
R
-----------------------------------------------------------------|
-----------------------------------------------------------------|
--------------------7777-5--------------------777755551010101012-|
--------------------XXXX-X--------------------XXXXXXXXX-X-X-X-X--|
****-*-****-*-****-*5555-3****-*-****-*-****-*555533338-8-8-8-10-|
0000-0-0000-0-0000-0------0000-0-0000-0-0000-0-------------------|

3:23
L
-----------------------------------------------------|
-----------------------------------------------------|
-------------------10101010-9------------------------|
--------------------X-X-X-X-X------------------------|
****-*-****-*-****-*8-8-8-8-7****-*******--------*---|
0000-0-0000-0-0000-0---------0000-0000000--------0---|
R
-----------------------------------------------------|
-----------------------------------------------------|
--------------------7777-5---------------------------|
--------------------XXXX-X---------------------------|
****-*-****-*-****-*5555-3****-*******-----------*---|
0000-0-0000-0-0000-0------0000-0000000-----------0---|

3:30
L
----------------------------------------------------------------|
----------------------------------------------------------------|
----------------------------------------------------------------|
--------------------------------------------------P-------------|
****-******0----****-******0--12--3--****-******0-H-****-*******|
0000-0000000----0000-0000000-/12-\3--0000-0000000-3-0000-0000000|
R
-----------------------------------------------------------------|
-----------------------------------------------------------------|
-----------------------------------------------------------------|
--------------------------------------------------PH-------------|
****-******0----****-******0--12--3--****-******0--3-****-*******|
0000-0000000----0000-0000000-/12-\3--0000-0000000----0000-0000000|
||||||||||||||||||||||||||||||||||||||||||||||||||||||||||||||||||
3:41
L
------------------------------------------------------------|
------------------------------------------------------------|
------------------------------------------------------------|
--^----^----^----^----^----^----^----^----^----^----^----^--|
12-8-12-8-12-8-12-8-12-8-12-8-12-8-12-8-10-7-10-7-10-7-10-7-|
------------------------------------------------------------|

------------------------------------------------------------|
------------------------------------------------------------|
------------------------------------------------------------|
--^----^----^----^----^----^----^----^----^----^----^----^--|
10-7-10-7-10-7-10-7-13-8-13-8-13-8-13-8-13-8-13-8-13-8-13-8-|
------------------------------------------------------------|

---------------------------------------------------------------------|
---------------------------------------------------------------------|
---------------------------------------------------------------------|
--^----^----^----^----^----^----^----^----^----^----^----^----^----^-|
15-8-15-8-15-8-15-8-13-8-13-8-13-8-13-8-12-8-12-8-12-8-12-8-12-8-12-8|
---------------------------------------------------------------------|

----------------------------------------------------------------------|
----------------------------------------------------------------------|
----------------------------------------------------------------------|
--^----^----^----^----^----^----^----^----^----^----^----^----^----^--|
12-8-12-8-10-7-10-7-10-7-10-7-10-7-10-7-10-7-10-7-13-8-13-8-13-8-13-8-|
----------------------------------------------------------------------|
               
------------------------------------------------------------|
------------------------------------------------------------|
------------------------------------------------------------|
--^----^----^----^----^----^----^----^----^----^----^----^--|
13-8-13-8-13-8-13-8-15-8-15-8-15-8-15-8-17-8-17-8-17-8-17-8-|
------------------------------------------------------------|

-----------------------------------------|
-----------------------------------------|
-----------------------------------------|
---^----^----^----^----^----^----^----^--|
-12-8-12-8-12-8-12-8-12-8-12-8-12-8-12-8-|
-----------------------------------------|


---------------------------------------------------------------|
---------------------------------------------------------------|
---------------------------------------------------------------|
--^----^----^----^----^----^----^----^----^-----^-----^-----^--|
12-8-12-8-12-8-12-8-12-8-12-8-12-8-12-8-13-10-13-10-13-10-13-10|
---------------------------------------------------------------|

-----------------------------------------------------------------|
-----------------------------------------------------------------|
-----------------------------------------------------------------|
--^-----^-----^-----^-----^-----^-----^-----^-----^-----^-----^--|
13-10-13-10-13-10-13-10-13-10-13-10-13-10-13-10-13-10-13-10-13-10|
-----------------------------------------------------------------|

-------------------------------------------------------|
-------------------------------------------------------|
-------------------------------------------------------|
--^-----^-----^-----^-----^-----^-----^-----^-----^----|
13-10-15-12-15-12-15-12-15-12-15-12-15-12-15-12-15-12--|
-------------------------------------------------------|

-------------------------------------------------|
-------------------------------------------------|
-------------------------------------------------|
--^-----^-----^-----^-----^-----^-----^-----^----|
15-12-15-12-15-12-15-12-15-12-15-12-15-12-15-12--|
-------------------------------------------------|

-------------------------------------------------|
-------------------------------------------------|
-------------------------------------------------|
--^-----^-----^-----^-----^-----^-----^-----^----|
17-13-17-13-17-13-17-13-17-13-17-13-17-13-17-13--|
-------------------------------------------------|

----------------------------------------------|
----_____------_____------_____------_____----|
---/     \----/     \----/     \----/     \---|
-14-15-14-0-14-15-14-0-14-15-14-0-14-15-14-0--|
----------------------------------------------|
----------------------------------------------|
|||||||||||||||||||||||||||||||||||||||||||||||||||
3:41
R
---------------------------------------------------------|
---------------------------------------------------------|
---------------------------------------------------------|
---------------------------------------------------------|
****-*-****-*-****-*-****-*-****-*-****-*-****-*-****-*--|
2220-0-2220-0-1110-0-1110-0-2220-0-2220-0-2220-0-1110-0--|

---------------------------------------------------------|
---------------------------------------------------------|
---------------------------------------------------------|
---------------------------------------------------------|
****-*-****-*-****-*-****-*-****-*-****-*-****-*-****-*--|
2220-0-2220-0-1110-0-1110-0-2220-0-2220-0-2220-0-1110-0--|

-----------------------------------------------------------------|
-----------------------------------------------------------------|
10101010101010101010101010101010-12121212121212121212121212121212|
-X-X-X-X-X-X-X-X-X-X-X-X-X-X-X-X--X-X-X-X-X-X-X-X-X-X-X-X-X-X-X-X|
-8-8-8-8-8-8-8-8-8-8-8-8-8-8-8-8-10101010101010101010101010101010|
-----------------------------------------------------------------|

----------------------------------------------------------------|
----------------------------------------------------------------|
1414141414141414141414141414141415151515151515151717171717171717|
-X-X-X-X-X-X-X-X-X-X-X-X-X-X-X-X-X-X-X-X-X-X-X-X-X-X-X-X-X-X-X-X|
1212121212121212121212121212121213131313131313131515151515151515|
----------------------------------------------------------------|
||||||||||||||||||||||||||||||||||||||||||||||||||||||||||||||||

4:06
R
----------------------------------------------------------------|
----------------------------------------------------------------|
1010101010101010101010101010101010101010101010101010101010101010|
-X-X-X-X-X-X-X-X-X-X-X-X-X-X-X-X-X-X-X-X-X-X-X-X-X-X-X-X-X-X-X-X|
-8-8-8-8-8-8-8-8-8-8-8-8-8-8-8-8-8-8-8-8-8-8-8-8-8-8-8-8-8-8-8-8|
----------------------------------------------------------------|
L
----------------------------------------------------------------|
----------------------------------------------------------------|
1010101010101010101010101010101010101010101010101010101010101010|
-X-X-X-X-X-X-X-X-X-X-X-X-X-X-X-X-X-X-X-X-X-X-X-X-X-X-X-X-X-X-X-X|
-8-8-8-8-8-8-8-8-8-8-8-8-8-8-8-8-8-8-8-8-8-8-8-8-8-8-8-8-8-8-8-8|
----------------------------------------------------------------|

R
----------------------------------------------------------------|
----------------------------------------------------------------|
1212121212121212121212121212121212121212121212121212121212121212|
-X-X-X-X-X-X-X-X-X-X-X-X-X-X-X-X-X-X-X-X-X-X-X-X-X-X-X-X-X-X-X-X|
1010101010101010101010101010101010101010101010101010101010101010|
----------------------------------------------------------------|
L
---------------------------------------------------------------|
---------------------------------------------------------------|
9-9-9-9-9-9-9-9-9-9-9-9-9-9-9-9-9-9-9-9-9-9-9-9-9-9-9-9-9-9-9-9|
X-X-X-X-X-X-X-X-X-X-X-X-X-X-X-X-X-X-X-X-X-X-X-X-X-X-X-X-X-X-X-X|
7-7-7-7-7-7-7-7-7-7-7-7-7-7-7-7-7-7-7-7-7-7-7-7-7-7-7-7-7-7-7-7|
---------------------------------------------------------------|

R
----------------------------------------------------------------|
----------------------------------------------------------------|
1414141414141414141414141414141414141414141414141414141414141414|
-X-X-X-X-X-X-X-X-X-X-X-X-X-X-X-X-X-X-X-X-X-X-X-X-X-X-X-X-X-X-X-X|
1212121212121212121212121212121212121212121212121212121212121212|
----------------------------------------------------------------|
L
----------------------------------------------------------------|
----------------------------------------------------------------|
1010101010101010101010101010101010101010101010101010101010101010|
-X-X-X-X-X-X-X-X-X-X-X-X-X-X-X-X-X-X-X-X-X-X-X-X-X-X-X-X-X-X-X-X|
-8-8-8-8-8-8-8-8-8-8-8-8-8-8-8-8-8-8-8-8-8-8-8-8-8-8-8-8-8-8-8-8|
----------------------------------------------------------------|

R
----------------------------------------------------------------|
----------------------------------------------------------------|
1515151515151515151515151515151517171717171717171717171717171717|
-X-X-X-X-X-X-X-X-X-X-X-X-X-X-X-X-X-X-X-X-X-X-X-X-X-X-X-X-X-X-X-X|
1313131313131313131313131313131315151515151515151515151515151515|
----------------------------------------------------------------|
L
----------------------------------------------------------------|
----------------------------------------------------------------|
121212121212121212121212121212121010101010101010-9-9-9-9-9-9-9-9|
-X-X-X-X-X-X-X-X-X-X-X-X-X-X-X-X-X-X-X-X-X-X-X-X-X-X-X-X-X-X-X-X|
10101010101010101010101010101010-8-8-8-8-8-8-8-8-7-7-7-7-7-7-7-7|
----------------------------------------------------------------|
Добавлено: 13.11.2013
Другие материалы по этой песне:
  • Аккорды и текст

Страница создана 13.11.2013
http://primanota.ru/a-love-ends-suicide/skate-junction-chords.htm
Привет, Гость.
Предлагаем пройти революционный курс по гитаре.
Подарок от PrimaNota.Ru, забирай!