PrimaNota.ru - самый крупный в мире бесплатный архив песенных текстов, аккордов, табулатур и нот


A Lot Like Birds - Next To Ungodliness - бас-таба, видео

Регистрация Запомнить меня
Войти через:  Facebook Google Twitter Vk Yandex Mail.ru

A Lot Like Birds - Next To Ungodliness - бас-таба, видео

Печатать
Просмотров: 135
Уроки эстрадного вокала в Санкт-Петербурге
-------------------------------------------------------------------------------
                 Next To Ungodliness - A Lot like Birds
-------------------------------------------------------------------------------
Tabbed by:Anthony Gonzalez
E-mail:Splidao@hotmail.com
Instagram & Twitter @splidao

Tuning:Drop D
G|-7-7-77---7-78--7-711-7----------------------------------------------------|
D|-7-7-77---7-78--7-711-7----------------------------------------------------|
A|-5-5-55\--5-56--5-59\-5----------------------------------------------------|
E|---------------------------------------------------------------------------|

G|---------------------------------------------------------------------------|
D|---------------------------------------------------------------------------|
A|---------------------------------------------------------------------------|
E|-5-5-5-5-8-8-8-7-7-7-7-10-10-10--5-5-5-5-8-8-8-7-7-7-7-3-3-----------------|

G|-------------------------------------------------------------7-78----------|
D|-------------------------------------------------------------7-78----------|
A|-------------------------------------------------------------5-56----------|
E|-5-5-5-5-8-8-8-7-7-7-7-10-10-10--5-5-5-5-8-8-8-3-3-3-3-4-4-4---------------|

G|---------------------------------------------------------------------------|
D|------8--------------------------------------------------------------------|
A|-5-55---55-55---5-55---5-6-9---9-5---9-99-9-9-10---------------------------|
E|---------------------------------------------------------------------------|

G|-----------------------------------------------------5--------5-----8------|
D|------12-8------12------13-8------13--------------------5---5---5----------|
A|-99-9------99-9----88-8------88-8-------------------------6-------6--------|
E|---------------------------------------4-4-4-4-4-4-4-----------------------|

G|---------------------------------------------------------------------------|
D|---------------------------------------------------------------------------|
A|---------------------------------------------------------------------------|
E|-4-4-4-4-4-4-7----7-7-7-7-7-7-8--------------------------------------------|

G|-7-----7-----7-----7-----7-------------------------------------------------|
D|-7-----7-----7-----7-----7-------------------------------------------------|
A|-5-----5-----5-----5-----5-------------------------------------------------|up stroke
E|-0-----0-----0-----0-----0-------------------------------------------------|

G|---------------------------------------------------------------------------|
D|---------------------------------------------------------------------------|
A|---------------------------------------------------------------------------|
E|-5-5-5-5-8-8-8-7-7-7-7-10-10-10--5-5-5-5-8-8-8-7-7-7-7-3-3-----------------|

G|-------------------------------------------------------------7-78----------|
D|-------------------------------------------------------------7-78----------|
A|-------------------------------------------------------------5-56----------|
E|-5-5-5-5-8-8-8-7-7-7-7-10-10-10--5-5-5-5-8-8-8-3-3-3-3-4-4-4---------------|
 
G|---7---7---7-----7---7---7-----7---7---7-----7-----7-----------------------|
D|-0---7---5---5-0---7---5---5-0---7---5---5-0---7-5---5---------------------|
A|---------------------------------------------------------------------------|
E|---------------------------------------------------------------------------|

G|---------------------------------------------------------------------------|
D|---------------------------------------------------------------------------|
A|---------------------------------------------------------------------------|
E|-5-5-5-5-5-5-3-5--3-5-5--3-5-5-5-5--3-3-3-10-10----------------------------|

G|---------------------------------------------------------------------------|
D|---------------------------------------------------------------------------|
A|---------------------------------------------------------------------------|
E|-8-8-8-8-8-8-7-8--7-8-8--8-8-8--8-8-8-8------------------------------------|

G|---------------------------------------------------------------------------|
D|---------------------------------------------------------------------------|
A|-3-3-------------------------1-1-1-1---0-0-3-3-----------------------------|
E|-----3-3-3-3-3-3-2-3--2-3-3------------------------------------------------|

G|---------------------------------------------------------------------------|
D|---------------------------------------------------------------------------|
A|-------------------------------3-3-3-6-6-5-5-------------------------------|
E|-4-4-4-4-4-4-3-4--3-4-4-3-4-4----------------------------------------------|



************************************

| /   slide up
| \   slide down
| h   hammer-on
| p   pull-off
| ~   vibrato
| +   harmonic
| x   Mute note
| b   Bend
| pb  Pre-bend
| br  Bend release
| pbr Pre-bend release
| brb Bend release bend

************************************
Добавлено: 20.08.2015
Другие материалы по этой песне:
  • Аккорды и текст

Страница создана 20.08.2015
http://primanota.ru/a-lot-like-birds/next-to-ungodliness-chords.htm
Привет, Гость.
Предлагаем пройти революционный курс по гитаре.
Подарок от PrimaNota.Ru, забирай!