PrimaNota.ru - самый крупный в мире бесплатный архив песенных текстов, аккордов, табулатур и нот


A Life Once Lost - Pigeonholed - таба, видео

Регистрация Запомнить меня
Войти через:  Facebook Google Twitter Vk Yandex Mail.ru

A Life Once Lost - Pigeonholed - таба, видео

Печатать
Просмотров: 147
------------------------------------------------------|
------------------------------------------------------|
------------------------------------------------------|
------15-15-15-15-15-15-15-15-------15-15-15-15-15-14b| x2
1-3-0-------------------------1-3-0-------------------|
1-3-0-------------------------1-3-0-------------------|

----------------------------------------------|
----------------------------------------------|
----------------------------------------------|
-5-5--3-3--7-7--5-5--3-3--2-2--0-0-------5----|x4 (The second guitar sounds like it's all chords)
3-3--1-1--5-5--3-3--1-1--0-0--0-0--1-2-3---3--|
----------------------------------------------|

----------------------------------------------|
----------------------------------------------|
----------------------------------------------|
-----------------15-15-13-12-15-9-10b-9-5/7b--|
1-3-7--1-3-9-1--------------------------------|
1-3-7--1-3-9-1--------------------------------|


---------------------------------------------------|
---------------------------------------------------|
---------------------------------------------------|
---------------------------------------------------| x2
7-7-7-7-5-5-3-2-3-2-3-5-3-2-3-3-3-3-3-2-2-3-5-5-5-5|
5-5-5-5-3-3-1-0-1-0-1-3-1-0-1-1-1-1-1-0-0-1-3-3-3-3|

----------------------------------------------|
----------------------------------------------|
----------------------------------------------|
----------------------------------------------|
0-0-0-0-0-0-0-0-1-1-1-1-1-1-1-1-1-3-4-5-------|
0-0-0-0-0-0-0-0-1-1-1-1-1-1-1-1-1-3-4-5-------|

---------------------------------------------------|
---------------------------------------------------|
---------------------------------------------------|
-----------------15-15-13-12-15-9-10b-9-5-7-9-12-10|
1-3-7--1-3-9-1-------------------------------------|
1-3-7--1-3-9-1-------------------------------------|

------------------------------------------------------------------|
------------------------------------------------------------------|
------------------------------------------------------------------|
-----------------15-15-13-12-15-9-10b-9-13h15p13-(keep doing that)|
1-3-7--1-3-9-1----------------------------------------------------|
1-3-7--1-3-9-1----------------------------------------------------|

Repeat intro till the end.
Добавлено: 25.02.2012
Другие материалы по этой песне:
  • Аккорды и текст

Страница создана 25.02.2012
http://primanota.ru/a-life-once-lost/pigeonholed-chords.htm
Привет, Гость.
Предлагаем пройти революционный курс по гитаре.
Подарок от PrimaNota.Ru, забирай!