PrimaNota.ru - самый крупный в мире бесплатный архив песенных текстов, аккордов, табулатур и нот


A Life Once Lost - Overwhelming - текст песни, таба, видео

Регистрация Запомнить меня
Войти через:  Facebook Google Twitter Vk Yandex Mail.ru

A Life Once Lost - Overwhelming - текст песни, таба, видео

Печатать
Просмотров: 150
-------------------------------------------------------------------------------
                             OVERWHELMING - A Life Once Lost
-------------------------------------------------------------------------------
Tabbed by: Andrew Skelly
Email:

Tuning: Drop D

e|---------------------------------------------------------------------------|
B|---------------------------------------------------------------------------|
G|---------------------------------------------------------------------------|
D|00000000-00-00--00000--00-00-4444-1111-0-00-00-00000-00-00-4444-1111-0-----|
A|00000000-00-00--00000--00-00-4444-1111-0-00-00-00000-00-00-4444-1111-0-----|
E|00000000-00-00--00000--00-00-4444-1111-0-00-00-00000-00-00-4444-1111-0-----|
  xxxxxxxx xx xx  xxxxx  xx xx xxxx xxxx x xx xx xxxxx xx xx xxxx xxxx x
e|---------------------------------------------------------------------------|
B|---------------------------------------------------------------------------|
G|---------------------------------------------------------------------------|
D|00-00--00000--00-00-4444-1111--0-00-00--00000--00-00-4444-1111-------------|
A|00-00--00000--00-00-4444-1111--0-00-00--00000--00-00-4444-1111-------------|
E|00-00--00000--00-00-4444-1111--0-00-00--00000--00-00-4444-1111-------------|
  xx xx  xxxxx  xx xx xxxx xxxx  x xx xx  xxxxx  xx xx xxxx xxxx 
e|---------------------------------------------------------------------------|
B|---------------------------------------------------------------------------|
G|---------------------------------------------------------------------------|
D|000-0-0-1-0-000-0-0-1-00-0-------------------------------------------------|
A|000-0-0-1-0-000-0-0-1-00-0-------------------------------------------------|
E|000---0---0-000---0---00---x8----------------------------------------------|
  xxx   x   x xxx   x   xx
e|---------------------------------------------------------------------------|
B|---------------------------------------------------------------------------|
G|---------------------------------------------------------------------------|
D|10-10-xx-xx-9-9-9-xx-9-9-9-xx-xx-xx-9-9-xx---------------------------------|
A|-9--9-xx-xx-8-8-8-xx-8-8-8-xx-xx-xx-8-8-xx---------------------------------|
E|10-10-xx-xx-9-9-9-xx-9-9-9-xx-xx-xx-9-9-xx----x8---------------------------|

e|---------------------------------------------------------------------------|
B|---------------------------------------------------------------------------|
G|---------------------------------------------------------------------------|
D|----------0-00-------------------------------------------------------------|
A|----------0-00-------------------------------------------------------------|
E|p10-0-8-0-0-00----x6-------------------------------------------------------|
            x xx
e|---------------------------------------------------------------------------|
B|---------------------------------------------------------------------------|
G|---------------------------------------------------------------------------|
D|----------000000-----------------------------------------------------------|
A|----------000000-----------------------------------------------------------|
E|p10-0-8-0-000000-----------------------------------------------------------|
            xxxxxx
e|---------------------------------------------------------------------------|
B|---------------------------------------------------------------------------|
G|---------------------------------------------------------------------------|
D|----00-00-------00-------00-00-00-----00-----------------------------------|
A|----00-00-------00-------00-00-00-----00-----------------------------------|
E|4-4-00-00-3-3-3-00-3-3-3-00-00-00-3-3-00-4-4----x4-------------------------|
      xx xx       xx       xx xx xx     xx
e|---------------------------------------------------------------------------|
B|---------------------------------------------------------------------------|
G|---------------------------------------------------------------------------|
D|----0000-0000-000-----0000-0000-000-----000-----0000-0000-000-----00-00-00-|
A|----0000-0000-000-----0000-0000-000-----000-----0000-0000-000-----00-00-00-|
E|3-3-0000-0000-000-3-3-0000-0000-000-3-3-000-4-4-0000-0000-000-4-4-00-00-00-|
      xxxx xxxx xxx     xxxx xxxx xxx     xxx     xxxx xxxx xxx     xx xx xx

| /  slide up
| \  slide down         First Tab ever.. Hope you find it useful.
| h  hammer-on
| p  pull-off
| ~  vibrato
| +  harmonic
| x  Mute note
===============================================================================
Добавлено: 29.06.2012
Другие материалы по этой песне:
  • Аккорды и текст

Страница создана 02.04.2012
http://primanota.ru/a-life-once-lost/overwhelming-chords.htm
Привет, Гость.
Предлагаем пройти революционный курс по гитаре.
Подарок от PrimaNota.Ru, забирай!