PrimaNota.ru - самый крупный в мире бесплатный архив песенных текстов, аккордов, табулатур и нот


A Life Once Lost - Others Die - таба, видео

Регистрация Запомнить меня
Войти через:  Facebook Google Twitter Vk Yandex Mail.ru

A Life Once Lost - Others Die - таба, видео

Печатать
Просмотров: 104
-----------------------------------------------------------|
-----------------------------------------------------------|
-----------------------------------------------------------|
-----------------------------------------------------------|
-----------------------------------------------------------|
/12\-9-000000-9-000000-9-8-000000-12-000000-12-000000-12-13|

--------------------------------------------------------|
--------------------------------------------------------|
--------------------------------------------------------|
--------------------------------------------------------|
-----------------------------------------------5-5-0-3-3|
000000-7-000000-7-000000-7-8-000000-5-000000-5-5-5-0-3-3|

------------------------------------------------------|
------------------------------------------------------|
------------------------------------------------------|
------------------------------------------------------|
------------------------------------------------------|
9-000000-9-000000-9-8-000000-12-000000-12-000000-12-13|

----------------------------------------------------------------|
----------------------------------------------------------------|
----------------------------------------------------------------|
----------------------------------------------------------------| 
-----------------------------------------------5-5-0-3-7-7-0-5-5|
000000-7-000000-7-000000-7-8-000000-5-000000-5-5-5-0-3-7-7-0-5-5|


-------------------------------------------------|
-------------------------------------------------|
-------------------------------------------------|
-------------------------------------------------| x2
7-7-7-7-7-7-5-5-5-5-5-5-9-9-9-9-9-9---------3-5-7|
5-5-5-5-5-5-3-3-3-3-3-3-7-7-7-7-7-7-3b-0-3b-3-5-7|

*Keep picking as you bend*
--------------------------------------------------------|
15b-17b-19b-21b-20-17-19-15-17-13-15-11-13-10-12-8h10p8b|
--------------------------------------------------------|
--------------------------------------------------------|
--------------------------------------------------------|
--------------------------------------------------------|

*Tremelo pick all the way through*

----------------------------------------------|
8-9-10-11-12-13-14-15-17-15-14-12-14b---------|
----------------------------------------------|
----------------------------------------------|
----------------------------------------------|
----------------------------------------------|

------------------------------------------------------|
------------------------------------------------------|
------------------------------------------------------|
------------------------------------------------------|
------------------------------------------------------|
9-000000-9-000000-9-8-000000-12-000000-12-000000-12-13|

--------------------------------------------------------|
--------------------------------------------------------|
--------------------------------------------------------|
--------------------------------------------------------|
-----------------------------------------------5-5-0-3-3|
000000-7-000000-7-000000-7-8-000000-5-000000-5-5-5-0-3-3|

-----------------------------------------------|
------------12h14-12h14-15h17-15h17-17h19-17h19|
9-7-6-9-3-5------------------------------------|
-----------------------------------------------|
-----------------------------------------------|
-----------------------------------------------|

(Have no idea, so just tremelo pick these notes)
-12-14-15-14-15-17-15-14-12-14-12--------|12-12-14-15-14-15-17-19-21b|
-----------------------------------14b-x3|---------------------------|
-----------------------------------------|---------------------------| 
-----------------------------------------|---------------------------|
-----------------------------------------|---------------------------|
-----------------------------------------|---------------------------|

15-16-18-19-20-21-22b-------------------------|
----------------------------------------------|
----------------------------------------------|
----------------------------------------------|
----------------------------------------------|
----------------------------------------------|

----------------------------------------------|
----------------------------------------------|
----------------------------------------------|
----------------------------------------------|
0-5-3------0-3-5-------00-00-000000-----------|
0-5-3-/12\-0-3-5-/17b--00-00-000000-----------|

                      *Tremelo Pick*
---------------------|--------------------------|
---------------------|--------------------------|
---------------------|--------------------------|
---------------------|--------------------------| x2
0----0-0-0-0-00-00-x4|--------------------------| 
0-5b-0-0-0-0-00-00---|---4-5-7-5-7-5-4-5-7-5-7-5|


-----------------------|
-----------------------|
-----------------------|
-----------------------|
5-5-5-5-5-5-3-3-3-3-3-3|
7-7-7-7-7-7-5-5-5-1-1-1|

-----------------------------------------------------------|
------------------------12h14-12h14-15h17-15h17-17h19-17h19|
------------9-7-6-9-3-5------------------------------------|
-----------------------------------------------------------|
0-0-0-0-0-0------------------------------------------------|
0-0-0-0-0-0------------------------------------------------|

15-16-18-19-20-21-20-19-18-17-16-15-----------|
-----------------------------------14b--------|
----------------------------------------------| x2
----------------------------------------------|
----------------------------------------------|
----------------------------------------------|

------------------|----------------------------|
------------------|----------------------------|
------------------|----------------------------|
------------------|----------------------------|
9-9-9-9-7-7-7-7-x3|9-9-9-9---------------------|
7-7-7-7-5-5-5-5---|7-7-7-7--12\----------------|

-------------------------------------------------------|
-------------------------------------------------------|
-------------------------------------------------------|
3-3-5-7-3-3-7-5-3-3-5-7-3-3-4-1-3-3-5-7-3-3-7-5-3-3-9-7|
-------------------------------------------------------|
-------------------------------------------------------|

-------------------------|
-------------------------|
-------------------------|
-------------3--2--0--3\0|
------3-5-7--------------|
-3b-0-3-5-7--------------|
Добавлено: 15.06.2012
Другие материалы по этой песне:
  • Аккорды и текст

Страница создана 15.06.2012
http://primanota.ru/a-life-once-lost/others-die-chords.htm
Привет, Гость.
Предлагаем пройти революционный курс по гитаре.
Подарок от PrimaNota.Ru, забирай!