PrimaNota.ru - самый крупный в мире бесплатный архив песенных текстов, аккордов, табулатур и нот


A Life Once Lost - Firewater Joyride - таба, видео

Регистрация Запомнить меня
Войти через:  Facebook Google Twitter Vk Yandex Mail.ru

A Life Once Lost - Firewater Joyride - таба, видео

Печатать
Просмотров: 115
Song: Firewater Joyride
Artist/Album: A Life Once Lost/ Iron Gag. 
Tuning: Dadbge
Tabbed By: PANDEMONIUM
Additional Notes: Missing Solo, I tabbed this by myself. 
Key:
P= Pull off.
H= Hammer on. 
/= Slide
~= Vibrato 
PH= Pinch Harmonic
b= Bend
P(..)= Palm Mute
()= optional

Intro/Main Riff
e|-----------------------------------------------------------|
b|-----------------------------------------------------------|
g|-----------------------------------------------------------|
d|-----------------------------------------------------5-3---|
a|-----------------------------------------------------5-3---|
D|19/0-03p0-05p0-06p0-07p0-8-12~-15-12-10-12(H)-7-9(H)-5-3-0-|

Main Riff
e|-------------------------------------------------------|
b|-------------------------------------------------------|
g|-------------------------------------------------------|
d|-------------------------------------------------5-3---|
a|-------------------------------------------------5-3---|
D|-03p0-05p0-06p0-07p0-8-12~-15-12-10-12(H)-7-9(H)-5-3-0-|

e|-------------------------------------------------------|
b|-------------------------------------------------------|
g|-------------------------------------------------------|
d|-------------------------------------------------5-3---|
a|-------------------------------------------------5-3---|
D|-0-0-0-0-03-05-06-07-8-12~-15-12-10-12(H)-7-9(H)-5-3-0-|
P...........  .  .  .  

e|-------------------------------------------------|
b|-------------------------------------------------|
g|-------------------------------------------------|
d|-------------------------------------------------|
a|-------------------------------------------------|
D|-03p0-05p0-06p0-07p0-8-12~-15-12-10-12(H)-7-9(H)-|
                                                  
Pre Chorus
e|-------------------------|
b|-------------------------|
g|-------------------------|
d|5-----555555-3-------7~PH|
a|5-----555555-3-----------|
D|5-0-0-555555-3-0-0-0-----|  
   p...          .....
(I dont know what the actual note is for the harmonic, but 7 sounds good)
Chorus 
e|---------------------------------------------------------|
b|---------------------------------------------------------|
g|---------------------------------------------------------|
d|-------------------------------------------------------3-|
a|-------------------------------------------------------3-|
D|0-0-0-17p0-19-0-0-0-17p0-17-0-0-0-17p0-17-15~0-0-0-0-0-3-|
P......         .....         .....            .........

e|-----------------------------------------------------------|
b|-----------------------------------------------------------|
g|-----------------------------------------------------------|
d|---------------------------------------------------------0-|
a|-------------------------------------------------6-5-3-0-0-|
D|0-0-0-17p0-19-0-0-0-17p0-17-0-0-0-17p0-17-15~0-0---------0-|
P......         .....         .....            ...


e|---------------------------------------------------------|
b|---------------------------------------------------------|
g|---------------------------------------------------------|
d|-------------------------------------------------------3-|
a|-------------------------------------------------------3-|
D|0-0-0-17p0-19-0-0-0-17p0-17-0-0-0-17p0-17-15~0-0-0-0-0-3-|
P......         .....         .....            .........


e|-----------------------------------------------------------|
b|-----------------------------------------------------------|
g|-----------------------------------------------------------|
d|---------------------------------------------------------0-|
a|-------------------------------------------------6-5-3-0-0-|
D|0-0-0-17p0-19-0-0-0-17p0-17-0-0-0-17p0-17-15~0-0---------0-| 
P......         .....         .....            ...

Main Riff
e|-------------------------------------------------------|
b|-------------------------------------------------------|
g|-------------------------------------------------------|
d|-------------------------------------------------5-3---|
a|-------------------------------------------------5-3---|
D|-03p0-05p0-06p0-07p0-8-12~-15-12-10-12(H)-7-9(H)-5-3-0-| 
(Play same Main Riff Structure as above)

Presolo
|--------------------------------|
|--------------------------------|
|--------------------------------|
|--------------------------3-3-0-|
|--------------------------3-3-0-|
|-15-17-15-18-17--15-10-12-3-3-0-|


|----------------------------------------------------|
|----------------------------------------------------|
|----------------------------------------------------|
|--------------------------3-3-0-5-5-0-3-3-0-3p0-3p0-|
|--------------------------3-3-0-5-5-0-3-3-0-3p0-3p0-|
|-15-17-15-18-17--15-10-12-3-3-0-5-5-0-3-3-0-3p0-3p0-| (play 3rd time)



Structure
Main Riff X4
Pre Chorus
Chorus
Main Riff X4
Pre Chorus
Chorus
Pre Solo/Solo
Chorus


And that's it, please feel free to correct me on anything here.. 
Th3worldsonfire@aim.com 
Enjoy!! 
Добавлено: 22.07.2012
Другие материалы по этой песне:

Страница создана 23.04.2012
http://primanota.ru/a-life-once-lost/firewater-joyride-chords.htm
Привет, Гость.
Предлагаем пройти революционный курс по гитаре.
Подарок от PrimaNota.Ru, забирай!