PrimaNota.ru - самый крупный в мире бесплатный архив песенных текстов, аккордов, табулатур и нот


A Life Once Lost - Detest - текст песни, таба, видео

Регистрация Запомнить меня
Войти через:  Facebook Google Twitter Vk Yandex Mail.ru

A Life Once Lost - Detest - текст песни, таба, видео

Печатать
Просмотров: 182
This is my first tab so don't be too harsh... There aren't many ALOL tabs so i figured 
give it a shot..

e----------------------------------------|
b----------------------------------------|
g----------------------------------------|
d-1-0--0~---------------------------3-5--|
a-1-0--0~-----8-5--------6-3--------3-5--|
d-1-0--0~-0-0----6b~-0-0----5b~-0-0-3-5--|
    

e----------------------------------------|
b----------------------------------------|
g----------------------------------------|
d-1-0--0~-------------00330055006633-----|
a-1-0--0~-----8-5------------------------|
d-1-0--0~-0-0----6b~---------------------|


Palm mute on the open d parts and for the last little tremeloesque part

I don't really know how to lay it out in a correct timing format but i'm sure you can 
it out
Добавлено: 19.04.2012
Другие материалы по этой песне:

Страница создана 22.03.2012
http://primanota.ru/a-life-once-lost/detest-chords.htm
Привет, Гость.
Предлагаем пройти революционный курс по гитаре.
Подарок от PrimaNota.Ru, забирай!