PrimaNota.ru - самый крупный в мире бесплатный архив песенных текстов, аккордов, табулатур и нот


A Life Once Lost - Cavil - текст песни, таба, видео

Регистрация Запомнить меня
Войти через:  Facebook Google Twitter Vk Yandex Mail.ru

A Life Once Lost - Cavil - текст песни, таба, видео

Печатать
Просмотров: 145
-----------------------------|
-----------------------------|
-----------------------------|
-----------------------------| x3
5----------5-----------------|
3-/10-00-0-3-/10-00-0-000-0-0|

-------------------------------------------------------|
----------------------------------------------------21b|
12b-12b-12-9-9h11h12p11b-8b-12b-12/16b-16/18b-18/20b---|
-------------------------------------------------------|
-------------------------------------------------------|
-------------------------------------------------------|

----------------------------------------------|
----------------------------------------------|
----------------------------------------------|
----------------------------------------------|
------0--0-------0--0-------0-0-------0-0-0-00|
7b-7b-0--0-7b-7b-0--0-7b-7b-0-0-7b-7b-0-0-0-00|

-----------------------------------------------------------------------|
-----------------------------------------------------------------------|
-----------------------------------------------------------------------|
-----------------------------------------------------------------------|
-----------------------------------------------------------------------| x3
9b/-0-00-0-9b/-0-00-0-9b/-0-00-0-9b-7b/-0-00-0-7b/-0-00-0-7b/-0-00-0-7b|

-------------------------------------------------------|
-------------------------------------------------------|
-------------------------------------------------------|
-------------------------------------------------------|
------0-0-------0-0-------0-0-------0-0-------0-0------|
7b-7b-0-0-7b-7b-0-0-7b-7b-0-0-7b-7b-0-0-7b-7b-0-0-7b-7b|

----------------------------------------------------------------|
----------------------------------------------------------------|
----------------------------------------------------------------|
----------------------------------------------------------------|
----------------------------------------------------------------|
10b-10b-10b-10b-000-10b-10b-10b-000-10b-10b-10b-0000-10b-10b-10b|

------------------------------------------|
------------------------------------------|
------------------------------------------|
------------------------------------------|
------------------------------------------| x4
0000-10b-10b-10b-0000-10b-10b-10b-00000000|

---------------------|
---------------------|
---------------------|
---------------------| x7
5----------5---------|
3-/10-00-0-3-/10-00-0|

-----------------------------|
-----------------------------|
-----------------------------|
-----------------------------| x6
5----------5-----------------|
3-/10-00-0-3-/10-00-0-000-0-0|

--------------------|
--------------------|
12b-12/16b-15b-15\9b|
--------------------|
--------------------|
--------------------|

----------------------------------------------------------------|
----------------------------------------------------------------|
----------------------------------------------------------------|
----------------------------------------------------------------|
----------------------------------------------------------------|
10b-10b-10b-10b-000-10b-10b-10b-000-10b-10b-10b-0000-10b-10b-10b|

------------------------------------------|
------------------------------------------|
------------------------------------------|
------------------------------------------|
------------------------------------------| x4
0000-10b-10b-10b-0000-10b-10b-10b-00000000|

-----------------------------|
-----------------------------|
-----------------------------|
-----------------------------| Till the end
5----------5-----------------|
3-/10-00-0-3-/10-00-0-000-0-0|
Добавлено: 07.03.2012
Другие материалы по этой песне:

Страница создана 07.03.2012
http://primanota.ru/a-life-once-lost/cavil-chords.htm
Привет, Гость.
Предлагаем пройти революционный курс по гитаре.
Подарок от PrimaNota.Ru, забирай!