PrimaNota.ru - самый крупный в мире бесплатный архив песенных текстов, аккордов, табулатур и нот


A Hero A Fake - Superwoman - таба, видео

Регистрация Запомнить меня
Войти через:  Facebook Google Twitter Vk Yandex Mail.ru

A Hero A Fake - Superwoman - таба, видео

Печатать
Просмотров: 168
A Hero A Fake
Superwoman (Intro)
Volatile
www.victoryrecords.com/aheroafake
www.myspace.com/xaheroafakex

Tabbed by : Pete_KC
E-mail : pete8---@hotmail.com

Tunning : C# G# C# F# A# D# (Drop D then half step down)

|-------|
|-------|
|-------|
|-------|
|--12/--|
|--12/--|

|--------------------------|----------------------------|
|--------------------------|----------------------------|
|--------------------------|----------------------------|
|--------------------------|----------------------------|
|--------5--5-----7-----8--|-----7-----8-----3/5--------|
|--0--0--------0-----0-----|--0-----0-----0-------8-----|\
   -  -        -     -        -     -     -               \
                                                          4X
|---------------------------|---------------------------| /
|---------------------------|---------------------------|/
|---------------------------|---------------------------|
|---------8--7--5-----------|---------------------------|
|------------------8--5-----|-----------------3---------|
|---5--5-----------------8--|--5--3--5--3--5-----5--3---|

|-------------------------------|---------------------------|
|-------------------------------|---------------------------|
|-------------------------------|---------------------------|
|-------------------------------|---------------------------|
|-------------------------------|-----------------3---------|
|---0-0-0--0-0-0--0-0-0--0-0-0--|--5--3--5--3--5-----5--3---|\
    - - -  - - -  - - -  - - -                                \
                                                              2X
|-------------------------------|---------------------------| / 
|-------------------------------|--------------------5h8p0--|/
|-------------------------------|---------------------------|
|-------------------------------|--------------5h7p0--------|
|-------------------------------|--------5h7p0--------------|
|---0-0-0--0-0-0--0-0-0--0-0-0--|--5h7p0--------------------|
    - - -  - - -  - - -  - - -

Добавлено: 11.05.2012
Вам также может быть интересно:
Другие материалы по этой песне:
  • Аккорды и текст

Страница создана 17.03.2012
http://primanota.ru/a-hero-a-fake/superwoman-chords.htm
Привет, Гость.
Предлагаем пройти революционный курс по гитаре.
Подарок от PrimaNota.Ru, забирай!