PrimaNota.ru - самый крупный в мире бесплатный архив песенных текстов, аккордов, табулатур и нот


A Heartwell Ending - Watch Me Make You Hate Me - таба, видео

Регистрация Запомнить меня
Войти через:  Facebook Google Twitter Vk Yandex Mail.ru

A Heartwell Ending - Watch Me Make You Hate Me - таба, видео

Печатать
Просмотров: 222
                 Watch Me Make You Hate Me- A Heartwell Ending

Tabbed by: MikeZ_78
Email:Mikez771@hotmail.com

Tuning: Standard

    OK, So, I noticed how there is not a single tab for this amazing song on the internet...so,
I decided to try and tab it myself, its my first one so go easy on me. I'm pretty sure 
all correct.
if not just tell me whats wrong.

Please rate :)

Notes:-Palm muting varies at some points..but its not too hard to figure out
      -Strumming is not shown, but its not hard to figure out...
      -when there isn't a "guitar 1 or 2" labeled, both can play it simultaneously
      -I sorted out all the parts in bars in 4/4 time
      -Its played at about 148 BPM


[Intro/Verse]

Guitar 1
play this 2X...
e|--------------------------|--------------------------|
B|--------------------------|--------------------------|
G|--7--p--5--4--5--p--4--0--|--5-h-7/9--0--5-h-7/9--0--|  x2
D|--------------------------|--------------------------|
A|--------------------------|--------------------------|
E|--------------------------|--------------------------|

Guitar 2
e|--------------------------|--------------------------|
B|--------------------------|--------------------------|
G|--5--5--5--5--5--5--5--5--|--5--5--5--5--5--5--5--5--|  x2
D|--5--5--5--5--5--5--5--5--|--5--5--5--5--5--5--5--5--|
A|--3--3--3--3--3--3--3--3--|--3--3--3--3--3--3--3--3--|
E|--------------------------|--------------------------|
 P.M.  .  .  .  .  .  .  .     .  .  .  .  .  .  .

...then play this
Guitar 1
e|--------------------------|--------------------------|
B|--8--p--7--5--7--h--5--0--|--7-h-8/10-0--7-h-8/10-0--|
G|--------------------------|--------------------------|
D|--------------------------|--------------------------|
A|--------------------------|--------------------------|
E|--------------------------|--------------------------|

Guitar 2
e|--------------------------|--------------------------|
B|--------------------------|--------------------------|
G|--5--5--5--5--5--5--5--5--|--5--5--5--5--5--5--5--5--|
D|--5--5--5--5--5--5--5--5--|--5--5--5--5--5--5--5--5--|
A|--7--7--7--7--7--7--7--7--|--7--7--7--7--7--7--7--7--|
E|--------------------------|--------------------------|
 P.M.  .  .  .  .  .  .  .     .  .  .  .  .  .  .  .

Guitar 1
e|--------------------------|--------------------------|
B|--8--p--7--5--7--h--5--0--|--7-h-8/10-0--7-h-8/10-0--|
G|--------------------------|--------------------------|
D|--------------------------|--------------------------|
A|--------------------------|--------------------------|
E|--------------------------|--------------------------|

Guitar 2
e|--------------------------|--------------------------|
B|--------------------------|--------------------------|
G|--7--7--7--7--7--7--7--7--|--7--7--7--7--7--7--7--7--|
D|--7--7--7--7--7--7--7--7--|--7--7--7--7--7--7--7--7--|
A|--5--5--5--5--5--5--5--5--|--5--5--5--5--5--5--5--5--|
E|--------------------------|--------------------------|
 P.M.  .  .  .  .  .  .  .     .  .  .  .  .     .

Play Intro/Verse riff 4X.


[Pre-Chorus]
"...don't you know what I think about at night..."
e|--------------------------|--------------------------|
B|--------------------------|--------------------------|
G|--5--5--5--5--5--5--5--5--|--5--5--5--5--5--5--5--5--|
D|--5--5--5--5--5--5--5--5--|--5--5--5--5--5--5--5--5--|
A|--3--3--3--3--3--3--3--3--|--3--3--3--3--3--3--3--3--|
E|--------------------------|--------------------------|

e|--------------------------|--------------------------|
B|--------------------------|--------------------------|
G|--5--5--5--5--5--5--5--5--|--5--5--5--5--5--5--3-----|
D|--5--5--5--5--5--5--5--5--|--5--5--5--5--5--5--3-rest|
A|--3--3--3--3--3--3--3--3--|--3--3--3--3--3--3--3-----|
E|--------------------------|--------------------------|

e|--------------------------|--------------------------|
B|--------------------------|--------------------------|
G|--5--5--5--5--5--5--5--5--|--5--5--5--5--5--5--5--5--|
D|--5--5--5--5--5--5--5--5--|--5--5--5--5--5--5--5--5--|
A|--3--3--3--3--3--3--3--3--|--3--3--3--3--3--3--3--3--|
E|--------------------------|--------------------------|

e|--------------------------|--------------------------|
B|--------------------------|--------------------------|
G|--5--5--5--5--5--5--5--5--|--5-----------------------|
D|--5--5--5--5--5--5--5--5--|--5--rest-----------------|
A|--3--3--3--3--3--3--3--3--|--3-----------------------|
E|--------------------------|--------------------------|


[Chorus]
"I met her at bar and I drove her car back home..."
e|--------------------------|--------------------------|
B|--------------------------|--------------------------|
G|--4--4--4--4--4--4--4--4--|--4--4--4--4--4--4--4--4--|
D|--4--4--4--4--4--4--4--4--|--4--4--4--4--4--4--4--4--|
A|--2--2--2--2--2--2--2--2--|--2--2--2--2--2--2--2--2--|
E|--------------------------|--------------------------|

e|--------------------------|--------------------------|
B|--------------------------|--------------------------|
G|--5--5--5--5--5--5--5--5--|--5--5--5--5--5--5--5--5--|
D|--5--5--5--5--5--5--5--5--|--5--5--5--5--5--5--5--5--|
A|--3--3--3--3--3--3--3--3--|--3--3--3--3--3--3--3--3--|
E|--------------------------|--------------------------|

e|--------------------------|--------------------------|
B|--------------------------|--------------------------|
G|--------------------------|--------------------------|
D|--5--5--5--5--5--5--5--5--|--5--5--5--5--5--5--5--5--|
A|--5--5--5--5--5--5--5--5--|--5--5--5--5--5--5--5--5--|
E|--3--3--3--3--3--3--3--3--|--3--3--3--3--3--3--3--3--|

e|--------------------------|--------------------------|
B|--------------------------|--------------------------|
G|--5--5--5--5--5--5--5--5--|--5--5--5--5--5--5--5--5--|
D|--5--5--5--5--5--5--5--5--|--5--5--5--5--5--5--5--5--|
A|--3--3--3--3--3--3--3--3--|--3--3--3--3--3--3--3--3--|
E|--------------------------|--------------------------|


"Off her eyes..."
e|--------------------------|--------------------------|
B|--------------------------|--------------------------|
G|--4--4--4--4--4--4--4--4--|--5--5--5--5--5--5--5--5--|
D|--4--4--4--4--4--4--4--4--|--5--5--5--5--5--5--5--5--|
A|--2--2--2--2--2--2--2--2--|--3--3--3--3--3--3--3--3--|
E|--------------------------|--------------------------|
 P.M.  .  .  .  .  .  .  .     .  .  .  .  .  .  .  .

e|--------------------------|--------------------------|
B|--------------------------|--------------------------|
G|--7--7--7--7--7--7--7--7--|--7--7--7--7--7--7--7--7--|
D|--7--7--7--7--7--7--7--7--|--7--7--7--7--7--7--7--7--|   x2
A|--5--5--5--5--5--5--5--5--|--5--5--5--5--5--5--5--5--|
E|--------------------------|--------------------------|
 P.M.  .  .  .  .  .  .  .     .  .  .  .  .  .  .  .


Play the Intro/verse 4X again.
"I've never seen anything quite so perfect..."

Play Pre-Chorus.
"One thing I know..."

Play Chorus.
"For now I've been waiting for something..."


[outro..I guess]
Play this 2X.
"...at dipiazas..."
e|--------------------------|--------------------------|
B|--------------------------|--------------------------|
G|--5--5--5--5--5--5--5--5--|--------------------------|
D|--5--5--5--5--5--5--5--5--|--5--5--5--5--5--5--5--5--|
A|--3--3--3--3--3--3--3--3--|--5--5--5--5--5--5--5--5--|
E|--------------------------|--3--3--3--3--3--3--3--3--|


e|--------------------------|--------------------------|
B|--------------------------|--------------------------|
G|--7--7--7--7--7--7--7--7--|--7--7--7--7--7--7--7--7--|
D|--7--7--7--7--7--7--7--7--|--7--7--7--7--7--7--7--7--|
A|--5--5--5--5--5--5--5--5--|--5--5--5--5--5--5--5--5--|
E|--------------------------|--------------------------|

...then this 2X.
"...wearing camouflage pants..."
e|--------------------------|--------------------------|
B|--------------------------|--------------------------|
G|--4--4--4--4--4--4--4--4--|--4--4--4--4--4--4--4--4--|
D|--4--4--4--4--4--4--4--4--|--4--4--4--4--4--4--4--4--|
A|--2--2--2--2--2--2--2--2--|--2--2--2--2--2--2--2--2--|
E|--------------------------|--------------------------|

e|--------------------------|--------------------------|
B|--------------------------|--------------------------|
G|--5--5--5--5--5--5--5--5--|--5--5--5--5--5--5--5--5--|
D|--5--5--5--5--5--5--5--5--|--5--5--5--5--5--5--5--5--|
A|--3--3--3--3--3--3--3--3--|--3--3--3--3--3--3--3--3--|
E|--------------------------|--------------------------|

second time don't play this...
e|--------------------------|--------------------------|
B|--------------------------|--------------------------|
G|--7--7--7--7--7--7--7--7--|--7--7--7--7--7--7--7--7--|
D|--7--7--7--7--7--7--7--7--|--7--7--7--7--7--7--7--7--|
A|--5--5--5--5--5--5--5--5--|--5--5--5--5--5--5--5--5--|
E|--------------------------|--------------------------|

Play this instead...
"...worst band I've ever played with..."
e|--------------------------|--------------------------|
B|--------------------------|--------------------------|
G|--7--7--7--7--x-----------|--7--7--7--7--x-----------|
D|--7--7--7--7--x--rest-----|--7--7--7--7--x--rest-----|
A|--5--5--5--5--x-----------|--5--5--5--5--x-----------|
E|--------------------------|--------------------------|

e|--------------------------|--------------------------|
B|--------------------------|--------------------------|
G|--7--7--7--------x--------|--------------------------|
D|--7--7--7--rest--x--rest--|--rest--------------------|
A|--5--5--5--------x--------|--------------------------|
E|--------------------------|--------------------------|

In case you missed the order, here it is again :
Intro/Verse    4X
Pre-Chorus     1X
Chorus         1X
Intro/Verse    4X
Pre-Chorus     1X
Chorus         1X
outro..I guess 1X

That is the whole song :D
any questions just contact me,
so have fun with this.
Rate/comment please!

************************************

| /   slide up
| \   slide down
| h   hammer-on
| p   pull-off
| ~   vibrato
| +   harmonic
| x   Mute note
| b   Bend
| pb  Pre-bend
| br  Bend release
| pbr Pre-bend release
| brb Bend release bend
| P.M.Palm Mute (only the '.'d notes)
************************************


Full Lyrics:


I'll tell you a secret
I hope you can keep it
I hope you can keep my secret close
Don't tell a soul
Now tell us all
I've been waiting just to say this
I've been waiting to let this out
I know she sees it
I can see it in her eyes no doubt
She makes her way downtown
She makes her way downtown
All I wanted was something real
All I wanted
All I wanted was something real
Something real just so I can feel
Just so I can feel
Tell me don't you know
What I think about at night
I'll tell you something, something
I'll tell you something
I think of you
I met her at bar
And I drove her car back home
Back home from chain reaction
To my distraction
Was her fake eyelashes
I wanted to snatch them right off her eyes
Off her eyes
Off her eyes
I wanted to snatch them
I've never seen anything quite so perfect
Never seen anyone quite so pure
Never seen anything that I wanted more
More than you
I never thought I'd meet somebody like this
I never thought this feeling ever existed
I never knew that I would meet somebody like you
But I did
But I did you're the shit
Bitch you're the sweetest
Bitch you're the sweetest
So I tried to make my mind up but it never came out right
So I know I left her but I'm leaving so here it goes
I said girl you're the shit
And now I know one thing
One thing I know
One thing I know
Is I'd never let you go
For now I've been waiting for something
Something that would take my breath away
And that is you
And tonight I'll try and let you go back
Where we started
It was only a month ago at dipiazas at the pizza place where I met you
You walked right through that door
And your friends band
They wanted to fight me
Especially their merch man
He was wearing camouflage pants
He was a hardcore kid for sure
The were from Florida but they sucked
They're probably the worst band I've ever played with
But they were your friends
Добавлено: 24.06.2012
Вам также может быть интересно:
Другие материалы по этой песне:
  • Аккорды и текст

Страница создана 24.06.2012
http://primanota.ru/a-heartwell-ending/watch-me-make-you-hate-me-chords.htm
Привет, Гость.
Предлагаем пройти революционный курс по гитаре.
Подарок от PrimaNota.Ru, забирай!