PrimaNota.ru - самый крупный в мире бесплатный архив песенных текстов, аккордов, табулатур и нот


A Great Big Pile Of Leaves - Workeatsleep - таба, видео

Регистрация Запомнить меня
Войти через:  Facebook Google Twitter Vk Yandex Mail.ru

A Great Big Pile Of Leaves - Workeatsleep - таба, видео

Печатать
Просмотров: 130
Read this first!:
Both guitars have a CAPO ON 2.
The tab will be relative to the capo.
Both guitars involve tapping.
Any notes at the 7th fret or higher will be tapped by the right hand.

Legend:
h - Hammer-On.
p - Pull-Off.
t - Tap.
<12> - Denotes Harmonics.
~ - Hold Note.



Guitar 1 (Pete Weiland)
Intro/Pre-Verse
E|--------------------------------|--------------------------------|
B|0-----------0h3t10p-3-------0---|------------0h3t12p-3-t-10p-3---|
G|0---------------------------0---|--------------------------------|
D|2---------------------------2---|--------------------------------|
A|3---------------------------3---|--------------------------------|
E|--------------------------------|--------------------------------|

E|--------------------------------|--------------------------------|
B|0-----------0h3t10p-3-------0---|----0h3t10--0h3t10p--0-h-7/8----|
G|0---------------------------0---|--------------------------------|
D|2---------------------------4---|--------------------------------|
A|3---------------------------5---|--------------------------------|
E|--------------------------------|--------------------------------|

E|--------------------------------|--------------------------------|
B|0-----------0h3t10p-3-------0---|------------0h3t12p-3-t-10p-3---|
G|0---------------------------0---|--------------------------------|
D|2---------------------------2---|--------------------------------|
A|3---------------------------3---|--------------------------------|
E|--------------------------------|--------------------------------|

E|--------------------------------|--------------------------------|
B|0-----------0h3t10p-3-------0---|----0-------0-------<7>---------|
G|0---------------------------0---|----0-------0-------<7>---------|
D|2---------------------------4---|----4-------4-----0-------------|
A|3---------------------------5---|----5-------5-------------------|
E|--------------------------------|--------------------------------|



Verse
E|--------------------------------|--------------------------------|
B|0-----------0h3t10p-3-------0---|------------0h3t12p-3-t-10p-3---|
G|0---------------------------0---|--------------------------------|
D|2---------------------------2---|--------------------------------|
A|3---------------------------3---|--------------------------------|
E|--------------------------------|--------------------------------|

E|--------------------------------|--------------------------------|
B|0-----------0h3t10p-3-------0---|----0-------0-------------------|
G|0---------------------------0---|----0-------0-------------------|
D|2---------------------------4---|----4-------4-------------------|
A|3---------------------------5---|----5-------5-------------------|
E|--------------------------------|--------------------------------|

E|--------------------------------|--------------------------------|---|
B|0-----------0h3t10p-3-------0---|------------0h3t12p-3-t-10p-3---|   |
G|0---------------------------0---|--------------------------------|   |
D|2---------------------------2---|--------------------------------|   |
A|3---------------------------3---|--------------------------------|   |
E|--------------------------------|--------------------------------|   |
                                                                       |x2
E|--------------------------------|--------------------------------|   |
B|0-----------0h3t10p-3-------0---|----0-------0-------<7>---------|   |
G|0---------------------------0---|----0-------0-------<7>---------|   |
D|2---------------------------4---|----4-------4-----0-------------|   |
A|3---------------------------5---|----5-------5-------------------|   |
E|--------------------------------|--------------------------------|---|



Pre-Chorus
E|--------------------------------|--------------------------------|
B|--------------------------------|--------------------------------|
G|4-----4-4-----7---7---7-7---7---|4-----4-4-----7---7---7-7---7---|
D|2-----2-2-----4---4---4-4---4---|2-----2-2-----4---4---4-4---4---|
A|3-----3-3-----5---5---5-5---5---|3-----3-3-----5---5---5-5---5---|
E|--------------------------------|--------------------------------|x2



Chorus is the same chords as the Pre-Chorus, only with distortion.



Bridge (3/4 Time)
E|----------------------------|--------------------------------|
B|-----(0)-----------(0)------|-----(0)-------------(0)--------|
G|------4-----7-------4-----0-|------4-----7---------4-----/12~|
D|--0h2-----4-----0h2-----4---|--0h2-----4-------0h2-----4-----|
A|3-------5-----3-------5-----|3-------5-------3-------5-------|
E|----------------------------|--------------------------------|

Bridge Continued
E|----------------------------|------------------------------|
B|-----(0)-----------(0)------|-----(0)-------------(0)------|
G|------4-----7-------4-----0-|------4-----7---------4-----0-|
D|--0h2-----4-----0h2-----4---|--0h2-----4-------0h2-----4---|
A|3-------5-----3-------5-----|3-------5-------3-------5-----|
E|----------------------------|------------------------------|x2



Before the final chorus:
E|--------------------------------|--------------------------------|
B|0-----------0h3t10p-3-------0---|------------0h3t12p-3-t-10p-3---|
G|0---------------------------0---|--------------------------------|
D|2---------------------------2---|--------------------------------|
A|3---------------------------3---|--------------------------------|
E|--------------------------------|--------------------------------|

E|--------------------------------|--------------------------------|
B|0-----------0h3t10p-3-------0---|----0-------0-------<7>---------|
G|0---------------------------0---|----0-------0-------<7>---------|
D|2---------------------------4---|----4-------4-----0-------------|
A|3---------------------------5---|----5-------5-------------------|
E|--------------------------------|--------------------------------|

E|--------------------------------|--------------------------------|
B|0-----------0h3t10p-3-------0---|------------0h3t12p-3-t-10p-3---|
G|0---------------------------0---|--------------------------------|
D|2---------------------------2---|--------------------------------|
A|3---------------------------3---|--------------------------------|
E|--------------------------------|--------------------------------|

E|--------------------------------|--------------------------------|
B|0-----------0h3t10p-3-------0~--|--------------------------------|
G|0---------------------------0~--|--------------------------------|
D|2---------------------------4~--|--------------------------------|
A|3---------------------------5~--|--------------------------------|
E|--------------------------------|--------------------------------|




Guitar 2 (Matt Fazzi)
Verse - Comes in with the vocals. Matt basically plays the same thing as Pete but
plays the more complicated bits, as Pete is also singing.
E|--------------------------------|--------------------------------|
B|0-----------0h3t10p-3-------0---|------------0h3t12p-3-t-10p-3---|
G|0---------------------------0---|--------------------------------|
D|2---------------------------2---|--------------------------------|
A|3---------------------------3---|--------------------------------|
E|--------------------------------|--------------------------------|

E|--------------------------------|--------------------------------|
B|0-----------0h3t10p-3-------0---|----0h3t10--0h3t10p--0-h-7/8----|
G|0---------------------------0---|--------------------------------|
D|2---------------------------4---|--------------------------------|
A|3---------------------------5---|--------------------------------|
E|--------------------------------|--------------------------------|



Pre-Chorus (second time only).
E|--------------------------------|--------------------------------|
B|--------------------------------|--------------------------------|
G|2h4~------------------------2-2-|2h4~------------/7~------------\|
D|--------------------------------|--------------------------------|
A|--------------------------------|--------------------------------|
E|--------------------------------|--------------------------------|

E|--------------------------------|--------------------------------|
B|--------------------------------|--------------------------------|
G|2h4~------------------------2-2-|2h4~------------/7~------5------|
D|--------------------------------|--------------------------------|
A|--------------------------------|--------------------------------|
E|--------------------------------|--------------------------------|



Chorus
E|--------------------------------|--------------------------------|
B|--------3-3---------5-5---------|--------3-3---------5-5-3-3-----|
G|2-2-4-4-----2-2-4-4-----2-2-4-4-|2-2-4-4-----2-2-4-4---------4-4-|
D|--------------------------------|--------------------------------|
A|--------------------------------|--------------------------------|
E|--------------------------------|--------------------------------|

E|--------------------------------|------------------------5-5-----|
B|--------3-3---------5-5---------|--------3-3/8-8-3-3---------8-8-|
G|2-2-4-4-----2-2-4-4-----2-2-4-4-|2-2-4-4-------------4-4---------|
D|--------------------------------|--------------------------------|
A|--------------------------------|--------------------------------|
E|--------------------------------|--------------------------------|



Bridge - Comes in with the drums and bass.
E|------------------------|--------------------------|
B|7-8-8-8-8-8-8-8-8-8-8-8-|7-8-8-8-8-10-10-8-8-7-7-8-|
G|------------------------|--------------------------|
D|------------------------|--------------------------|
A|------------------------|--------------------------|
E|------------------------|--------------------------|x2

E|------------------------------------|------------------------------------|
B|10-12-12-12-12-12-12-12-12-12-12-12-|10-12-12-12-12-13-13-12-12-10-10-12-|
G|------------------------------------|------------------------------------|
D|------------------------------------|------------------------------------|
A|------------------------------------|------------------------------------|
E|------------------------------------|------------------------------------|x2



Before the final chorus, rest four bars, then:
E|--------------------------------|--------------------------------|
B|0-----------0h3t10p-3-------0---|------------0h3t12p-3-t-10p-3---|
G|0---------------------------0---|--------------------------------|
D|2---------------------------2---|--------------------------------|
A|3---------------------------3---|--------------------------------|
E|--------------------------------|--------------------------------|

E|--------------------------------|--------------------------------|
B|0-----------0h3t10p-3-------0~--|--------------------------------|
G|0---------------------------0~--|--------------------------------|
D|2---------------------------4~--|--------------------------------|
A|3---------------------------5~--|--------------------------------|
E|--------------------------------|--------------------------------|



Final Chorus (x4)
E|--------------------------------|--------------------------------|
B|--------3-3---------5-5---------|--------3-3---------5-5-3-3-----|
G|2-2-4-4-----2-2-4-4-----2-2-4-4-|2-2-4-4-----2-2-4-4---------4-4-|
D|--------------------------------|--------------------------------|
A|--------------------------------|--------------------------------|
E|--------------------------------|--------------------------------|

E|--------------------------------|------------------------5-5-----|
B|--------3-3---------5-5---------|--------3-3/8-8-3-3---------8-8-|
G|2-2-4-4-----2-2-4-4-----2-2-4-4-|2-2-4-4-------------4-4---------|
D|--------------------------------|--------------------------------|
A|--------------------------------|--------------------------------|
E|--------------------------------|--------------------------------|



And that's it! This was a tricky song to tab, and I've probably made some mistakes, 
so if you have any questions or corrections, let me know!
Добавлено: 30.06.2013
Другие материалы по этой песне:
  • Аккорды и текст

Страница создана 30.06.2013
http://primanota.ru/a-great-big-pile-of-leaves/workeatsleep-chords.htm
Привет, Гость.
Предлагаем пройти революционный курс по гитаре.
Подарок от PrimaNota.Ru, забирай!